  0
SECTION
  2
HEADER
  9
$ACADVER
  1
AC1027
  9
$ACADMAINTVER
 70
    83
  9
$DWGCODEPAGE
  3
ANSI_1252
  9
$LASTSAVEDBY
  1
chadclouser
  9
$REQUIREDVERSIONS
160
                 0
  9
$INSBASE
 10
0.0
 20
0.0
 30
0.0
  9
$EXTMIN
 10
-5.082447051760315
 20
-21.37187420869571
 30
0.0
  9
$EXTMAX
 10
49.81111575853189
 20
1.236998298900946
 30
0.0
  9
$LIMMIN
 10
0.0
 20
0.0
  9
$LIMMAX
 10
12.0
 20
9.0
  9
$ORTHOMODE
 70
     1
  9
$REGENMODE
 70
     1
  9
$FILLMODE
 70
     1
  9
$QTEXTMODE
 70
     0
  9
$MIRRTEXT
 70
     0
  9
$LTSCALE
 40
1.0
  9
$ATTMODE
 70
     1
  9
$TEXTSIZE
 40
12.10402048440558
  9
$TRACEWID
 40
0.05
  9
$TEXTSTYLE
  7
Standard
  9
$CLAYER
  8
HI Lateral
  9
$CELTYPE
  6
ByLayer
  9
$CECOLOR
 62
   256
  9
$CELTSCALE
 40
1.0
  9
$DISPSILH
 70
     0
  9
$DIMSCALE
 40
1.0
  9
$DIMASZ
 40
1.0
  9
$DIMEXO
 40
0.05
  9
$DIMDLI
 40
0.505
  9
$DIMRND
 40
0.0
  9
$DIMDLE
 40
0.675
  9
$DIMEXE
 40
0.675
  9
$DIMTP
 40
0.0
  9
$DIMTM
 40
0.0
  9
$DIMTXT
 40
1.0
  9
$DIMCEN
 40
0.09
  9
$DIMTSZ
 40
0.0
  9
$DIMTOL
 70
     0
  9
$DIMLIM
 70
     0
  9
$DIMTIH
 70
     0
  9
$DIMTOH
 70
     0
  9
$DIMSE1
 70
     0
  9
$DIMSE2
 70
     0
  9
$DIMTAD
 70
     0
  9
$DIMZIN
 70
     3
  9
$DIMBLK
  1
ARCHTICK
  9
$DIMASO
 70
     1
  9
$DIMSHO
 70
     1
  9
$DIMPOST
  1

  9
$DIMAPOST
  1

  9
$DIMALT
 70
     0
  9
$DIMALTD
 70
     2
  9
$DIMALTF
 40
25.4
  9
$DIMLFAC
 40
0.9999999999999998
  9
$DIMTOFL
 70
     1
  9
$DIMTVP
 40
0.0
  9
$DIMTIX
 70
     0
  9
$DIMSOXD
 70
     0
  9
$DIMSAH
 70
     0
  9
$DIMBLK1
  1

  9
$DIMBLK2
  1

  9
$DIMSTYLE
  2
HUNTER-1.5INCH
  9
$DIMCLRD
 70
   256
  9
$DIMCLRE
 70
   256
  9
$DIMCLRT
 70
   256
  9
$DIMTFAC
 40
1.0
  9
$DIMGAP
 40
0.04
  9
$DIMJUST
 70
     0
  9
$DIMSD1
 70
     0
  9
$DIMSD2
 70
     0
  9
$DIMTOLJ
 70
     1
  9
$DIMTZIN
 70
     0
  9
$DIMALTZ
 70
     0
  9
$DIMALTTZ
 70
     0
  9
$DIMUPT
 70
     0
  9
$DIMDEC
 70
     0
  9
$DIMTDEC
 70
     0
  9
$DIMALTU
 70
     2
  9
$DIMALTTD
 70
     2
  9
$DIMTXSTY
  7
Hunter
  9
$DIMAUNIT
 70
     0
  9
$DIMADEC
 70
     0
  9
$DIMALTRND
 40
0.0
  9
$DIMAZIN
 70
     0
  9
$DIMDSEP
 70
    46
  9
$DIMATFIT
 70
     1
  9
$DIMFRAC
 70
     0
  9
$DIMLDRBLK
  1
Open90
  9
$DIMLUNIT
 70
     4
  9
$DIMLWD
 70
    -1
  9
$DIMLWE
 70
    -2
  9
$DIMTMOVE
 70
     2
  9
$DIMFXL
 40
1.0
  9
$DIMFXLON
 70
     0
  9
$DIMJOGANG
 40
0.7853981633974483
  9
$DIMTFILL
 70
     0
  9
$DIMTFILLCLR
 70
     0
  9
$DIMARCSYM
 70
     0
  9
$DIMLTYPE
  6

  9
$DIMLTEX1
  6

  9
$DIMLTEX2
  6

  9
$DIMTXTDIRECTION
 70
     0
  9
$LUNITS
 70
     4
  9
$LUPREC
 70
     4
  9
$SKETCHINC
 40
0.1
  9
$FILLETRAD
 40
0.0
  9
$AUNITS
 70
     0
  9
$AUPREC
 70
     2
  9
$MENU
  1
.
  9
$ELEVATION
 40
0.0
  9
$PELEVATION
 40
0.0
  9
$THICKNESS
 40
0.0
  9
$LIMCHECK
 70
     0
  9
$CHAMFERA
 40
0.0
  9
$CHAMFERB
 40
0.0
  9
$CHAMFERC
 40
0.0
  9
$CHAMFERD
 40
0.0
  9
$SKPOLY
 70
     0
  9
$TDCREATE
 40
2454770.393585949
  9
$TDUCREATE
 40
2454770.601919282
  9
$TDUPDATE
 40
2458066.629129410
  9
$TDUUPDATE
 40
2458066.837462743
  9
$TDINDWG
 40
95.8594855903
  9
$TDUSRTIMER
 40
95.8594854167
  9
$USRTIMER
 70
     1
  9
$ANGBASE
 50
0.0
  9
$ANGDIR
 70
     0
  9
$PDMODE
 70
     0
  9
$PDSIZE
 40
0.0
  9
$PLINEWID
 40
0.0
  9
$SPLFRAME
 70
     0
  9
$SPLINETYPE
 70
     6
  9
$SPLINESEGS
 70
     8
  9
$HANDSEED
  5
AD68A
  9
$SURFTAB1
 70
     6
  9
$SURFTAB2
 70
     6
  9
$SURFTYPE
 70
     6
  9
$SURFU
 70
     6
  9
$SURFV
 70
     6
  9
$UCSBASE
  2

  9
$UCSNAME
  2

  9
$UCSORG
 10
0.0
 20
0.0
 30
0.0
  9
$UCSXDIR
 10
1.0
 20
0.0
 30
0.0
  9
$UCSYDIR
 10
0.0
 20
1.0
 30
0.0
  9
$UCSORTHOREF
  2

  9
$UCSORTHOVIEW
 70
     0
  9
$UCSORGTOP
 10
0.0
 20
0.0
 30
0.0
  9
$UCSORGBOTTOM
 10
0.0
 20
0.0
 30
0.0
  9
$UCSORGLEFT
 10
0.0
 20
0.0
 30
0.0
  9
$UCSORGRIGHT
 10
0.0
 20
0.0
 30
0.0
  9
$UCSORGFRONT
 10
0.0
 20
0.0
 30
0.0
  9
$UCSORGBACK
 10
0.0
 20
0.0
 30
0.0
  9
$PUCSBASE
  2

  9
$PUCSNAME
  2

  9
$PUCSORG
 10
0.0
 20
0.0
 30
0.0
  9
$PUCSXDIR
 10
1.0
 20
0.0
 30
0.0
  9
$PUCSYDIR
 10
0.0
 20
1.0
 30
0.0
  9
$PUCSORTHOREF
  2

  9
$PUCSORTHOVIEW
 70
     0
  9
$PUCSORGTOP
 10
0.0
 20
0.0
 30
0.0
  9
$PUCSORGBOTTOM
 10
0.0
 20
0.0
 30
0.0
  9
$PUCSORGLEFT
 10
0.0
 20
0.0
 30
0.0
  9
$PUCSORGRIGHT
 10
0.0
 20
0.0
 30
0.0
  9
$PUCSORGFRONT
 10
0.0
 20
0.0
 30
0.0
  9
$PUCSORGBACK
 10
0.0
 20
0.0
 30
0.0
  9
$USERI1
 70
     0
  9
$USERI2
 70
     0
  9
$USERI3
 70
     0
  9
$USERI4
 70
     0
  9
$USERI5
 70
     0
  9
$USERR1
 40
0.0
  9
$USERR2
 40
0.0
  9
$USERR3
 40
0.0
  9
$USERR4
 40
0.0
  9
$USERR5
 40
12.07090419886942
  9
$WORLDVIEW
 70
     1
  9
$SHADEDGE
 70
     3
  9
$SHADEDIF
 70
    70
  9
$TILEMODE
 70
     1
  9
$MAXACTVP
 70
    64
  9
$PINSBASE
 10
0.0
 20
0.0
 30
0.0
  9
$PLIMCHECK
 70
     0
  9
$PEXTMIN
 10
0.0145643619954186
 20
0.0132348038147043
 30
-0.0015258207003583
  9
$PEXTMAX
 10
10.27458914444549
 20
7.796388667592996
 30
0.0000000349246037
  9
$PLIMMIN
 10
-0.7005418191744587
 20
-0.2281003861915408
  9
$PLIMMAX
 10
10.99237156665231
 20
8.039616149241531
  9
$UNITMODE
 70
     0
  9
$VISRETAIN
 70
     1
  9
$PLINEGEN
 70
     0
  9
$PSLTSCALE
 70
     1
  9
$TREEDEPTH
 70
  3020
  9
$CMLSTYLE
  2
Standard
  9
$CMLJUST
 70
     1
  9
$CMLSCALE
 40
8.0
  9
$PROXYGRAPHICS
 70
     1
  9
$MEASUREMENT
 70
     0
  9
$CELWEIGHT
370
    -1
  9
$ENDCAPS
280
     0
  9
$JOINSTYLE
280
     0
  9
$LWDISPLAY
290
     0
  9
$INSUNITS
 70
     1
  9
$HYPERLINKBASE
  1

  9
$STYLESHEET
  1
Standard Pen Settings.ctb
  9
$XEDIT
290
     1
  9
$CEPSNTYPE
380
     0
  9
$PSTYLEMODE
290
     1
  9
$FINGERPRINTGUID
  2
{042633EE-7B2A-4DA3-9B1E-3D8485D08136}
  9
$VERSIONGUID
  2
{92814707-3D6A-4027-A5F5-57AADDC6FB33}
  9
$EXTNAMES
290
     1
  9
$PSVPSCALE
 40
0.0
  9
$OLESTARTUP
290
     0
  9
$SORTENTS
280
   127
  9
$INDEXCTL
280
     0
  9
$HIDETEXT
280
     1
  9
$XCLIPFRAME
280
     0
  9
$HALOGAP
280
     0
  9
$OBSCOLOR
 70
   257
  9
$OBSLTYPE
280
     0
  9
$INTERSECTIONDISPLAY
280
     0
  9
$INTERSECTIONCOLOR
 70
   257
  9
$DIMASSOC
280
     2
  9
$PROJECTNAME
  1

  9
$CAMERADISPLAY
290
     0
  9
$LENSLENGTH
 40
50.0
  9
$CAMERAHEIGHT
 40
0.0
  9
$STEPSPERSEC
 40
2.0
  9
$STEPSIZE
 40
6.0
  9
$3DDWFPREC
 40
2.0
  9
$PSOLWIDTH
 40
0.25
  9
$PSOLHEIGHT
 40
4.0
  9
$LOFTANG1
 40
1.570796326794896
  9
$LOFTANG2
 40
1.570796326794896
  9
$LOFTMAG1
 40
0.0
  9
$LOFTMAG2
 40
0.0
  9
$LOFTPARAM
 70
     7
  9
$LOFTNORMALS
280
     1
  9
$LATITUDE
 40
37.795
  9
$LONGITUDE
 40
-122.394
  9
$NORTHDIRECTION
 40
0.0
  9
$TIMEZONE
 70
 -8000
  9
$LIGHTGLYPHDISPLAY
280
     1
  9
$TILEMODELIGHTSYNCH
280
     1
  9
$CMATERIAL
347
96
  9
$SOLIDHIST
280
     1
  9
$SHOWHIST
280
     1
  9
$DWFFRAME
280
     2
  9
$DGNFRAME
280
     0
  9
$REALWORLDSCALE
290
     1
  9
$INTERFERECOLOR
 62
     1
  9
$INTERFEREOBJVS
345
A3
  9
$INTERFEREVPVS
346
A0
  9
$CSHADOW
280
     0
  9
$SHADOWPLANELOCATION
 40
0.0
  0
ENDSEC
  0
SECTION
  2
CLASSES
  0
CLASS
  1
ACDBDICTIONARYWDFLT
  2
AcDbDictionaryWithDefault
  3
ObjectDBX Classes
 90
        0
 91
        1
280
     0
281
     0
  0
CLASS
  1
ACDBPLACEHOLDER
  2
AcDbPlaceHolder
  3
ObjectDBX Classes
 90
        0
 91
        1
280
     0
281
     0
  0
CLASS
  1
LAYOUT
  2
AcDbLayout
  3
ObjectDBX Classes
 90
        0
 91
        3
280
     0
281
     0
  0
CLASS
  1
DICTIONARYVAR
  2
AcDbDictionaryVar
  3
ObjectDBX Classes
 90
        0
 91
       13
280
     0
281
     0
  0
CLASS
  1
TABLESTYLE
  2
AcDbTableStyle
  3
ObjectDBX Classes
 90
     4095
 91
        1
280
     0
281
     0
  0
CLASS
  1
MATERIAL
  2
AcDbMaterial
  3
ObjectDBX Classes
 90
     1153
 91
        3
280
     0
281
     0
  0
CLASS
  1
VISUALSTYLE
  2
AcDbVisualStyle
  3
ObjectDBX Classes
 90
     4095
 91
       26
280
     0
281
     0
  0
CLASS
  1
EXACXREFPANELOBJECT
  2
ExAcXREFPanelObject
  3
EXAC_ESW
 90
     1025
 91
        0
280
     0
281
     0
  0
CLASS
  1
NPOCOLLECTION
  2
AcDbImpNonPersistentObjectsCollection
  3
ObjectDBX Classes
 90
     1153
 91
        0
280
     0
281
     0
  0
CLASS
  1
PLOTSETTINGS
  2
AcDbPlotSettings
  3
ObjectDBX Classes
 90
        0
 91
        6
280
     0
281
     0
  0
CLASS
  1
SORTENTSTABLE
  2
AcDbSortentsTable
  3
ObjectDBX Classes
 90
        0
 91
        1
280
     0
281
     0
  0
CLASS
  1
ACAD_EVALUATION_GRAPH
  2
AcDbEvalGraph
  3
ObjectDBX Classes
 90
     1153
 91
        0
280
     0
281
     0
  0
CLASS
  1
ACAECUSTOBJ
  2
AcAeEditorObj
  3
AcAeEditorObj
 90
     1024
 91
        0
280
     0
281
     0
  0
CLASS
  1
ACDB_DYNAMICBLOCKPURGEPREVENTER_VERSION
  2
AcDbDynamicBlockPurgePreventer
  3
ObjectDBX Classes
 90
     1153
 91
        0
280
     0
281
     0
  0
CLASS
  1
BLOCKVISIBILITYPARAMETER
  2
AcDbBlockVisibilityParameter
  3
ObjectDBX Classes
 90
     1153
 91
        0
280
     0
281
     0
  0
CLASS
  1
BLOCKVISIBILITYGRIP
  2
AcDbBlockVisibilityGrip
  3
ObjectDBX Classes
 90
     1153
 91
        0
280
     0
281
     0
  0
CLASS
  1
BLOCKGRIPLOCATIONCOMPONENT
  2
AcDbBlockGripExpr
  3
ObjectDBX Classes
 90
     1153
 91
        0
280
     0
281
     0
  0
CLASS
  1
ACDB_BLOCKREPRESENTATION_DATA
  2
AcDbBlockRepresentationData
  3
ObjectDBX Classes
 90
     1153
 91
        0
280
     0
281
     0
  0
CLASS
  1
BLOCKROTATIONPARAMETER
  2
AcDbBlockRotationParameter
  3
ObjectDBX Classes
 90
     1153
 91
        0
280
     0
281
     0
  0
CLASS
  1
BLOCKROTATIONGRIP
  2
AcDbBlockRotationGrip
  3
ObjectDBX Classes
 90
     1153
 91
        0
280
     0
281
     0
  0
CLASS
  1
BLOCKROTATEACTION
  2
AcDbBlockRotateAction
  3
ObjectDBX Classes
 90
     1153
 91
        0
280
     0
281
     0
  0
CLASS
  1
EXACTERMXREFMAP
  2
ExAcTermXrefMap
  3
EXAC_SERVICE
 90
     1025
 91
        0
280
     0
281
     0
  0
CLASS
  1
RASTERVARIABLES
  2
AcDbRasterVariables
  3
ISM
 90
        0
 91
        1
280
     0
281
     0
  0
CLASS
  1
SCALE
  2
AcDbScale
  3
ObjectDBX Classes
 90
     1153
 91
       37
280
     0
281
     0
  0
CLASS
  1
MLEADERSTYLE
  2
AcDbMLeaderStyle
  3
ACDB_MLEADERSTYLE_CLASS
 90
     4095
 91
        1
280
     0
281
     0
  0
CLASS
  1
CELLSTYLEMAP
  2
AcDbCellStyleMap
  3
ObjectDBX Classes
 90
     1152
 91
        1
280
     0
281
     0
  0
CLASS
  1
BLOCKLINEARPARAMETER
  2
AcDbBlockLinearParameter
  3
ObjectDBX Classes
 90
     1153
 91
        0
280
     0
281
     0
  0
CLASS
  1
BLOCKLINEARGRIP
  2
AcDbBlockLinearGrip
  3
ObjectDBX Classes
 90
     1153
 91
        0
280
     0
281
     0
  0
CLASS
  1
BLOCKSCALEACTION
  2
AcDbBlockScaleAction
  3
ObjectDBX Classes
 90
     1153
 91
        0
280
     0
281
     0
  0
CLASS
  1
WIPEOUT
  2
AcDbWipeout
  3
WipeOut|Product Desc: Object Enabler for WipeOut entity | Company: Autodesk, Inc. | WEB Address: www.autodesk.com
 90
     2175
 91
        0
280
     0
281
     1
  0
CLASS
  1
WIPEOUTVARIABLES
  2
AcDbWipeoutVariables
  3
"WipeOut|Product Desc:     WipeOut Dbx Application|Company:          Autodesk, Inc.|WEB Address:      www.autodesk.com"
 90
        0
 91
        1
280
     0
281
     0
  0
CLASS
  1
DIMASSOC
  2
AcDbDimAssoc
  3
"AcDbDimAssoc|Product Desc:     AcDim ARX App For Dimension|Company:          Autodesk, Inc.|WEB Address:      www.autodesk.com"
 90
        0
 91
        0
280
     0
281
     0
  0
CLASS
  1
AEC_REFEDIT_STATUS_TRACKER
  2
AecDbRefEditStatusTracker
  3
AecArchBase70|Product Desc: Autodesk Architectural Desktop 2007 |Company: Autodesk,Inc. |WEB Address: www.autodesk.com
 90
      129
 91
        0
280
     0
281
     0
  0
CLASS
  1
BLOCKPOLARPARAMETER
  2
AcDbBlockPolarParameter
  3
ObjectDBX Classes
 90
     1153
 91
        0
280
     0
281
     0
  0
CLASS
  1
BLOCKPOLARGRIP
  2
AcDbBlockPolarGrip
  3
ObjectDBX Classes
 90
     1153
 91
        0
280
     0
281
     0
  0
CLASS
  1
BLOCKSTRETCHACTION
  2
AcDbBlockStretchAction
  3
ObjectDBX Classes
 90
     1153
 91
        0
280
     0
281
     0
  0
CLASS
  1
BLOCKFLIPPARAMETER
  2
AcDbBlockFlipParameter
  3
ObjectDBX Classes
 90
     1153
 91
        0
280
     0
281
     0
  0
CLASS
  1
BLOCKFLIPGRIP
  2
AcDbBlockFlipGrip
  3
ObjectDBX Classes
 90
     1153
 91
        0
280
     0
281
     0
  0
CLASS
  1
BLOCKFLIPACTION
  2
AcDbBlockFlipAction
  3
ObjectDBX Classes
 90
     1153
 91
        0
280
     0
281
     0
  0
CLASS
  1
AEC_NOTIFICATION_TRACKER
  2
AecDbNotificationTracker
  3
AecBase70|Product Desc: Autodesk Architectural Desktop 2007 |Company: Autodesk,Inc. |WEB Address: www.autodesk.com
 90
      129
 91
        0
280
     0
281
     0
  0
CLASS
  1
ACDBSECTIONVIEWSTYLE
  2
AcDbSectionViewStyle
  3
ObjectDBX Classes
 90
     1025
 91
        1
280
     0
281
     0
  0
CLASS
  1
ACDBDETAILVIEWSTYLE
  2
AcDbDetailViewStyle
  3
ObjectDBX Classes
 90
     1025
 91
        1
280
     0
281
     0
  0
CLASS
  1
AEC_DISP_REP_ANCHOR_TAG_TO_ENT
  2
AecDbDispRepAnchorTagToEnt
  3
AecBase70|Product Desc: Autodesk Architectural Desktop 2007 |Company: Autodesk,Inc. |WEB Address: www.autodesk.com
 90
      129
 91
        1
280
     0
281
     0
  0
CLASS
  1
AEC_DISP_PROPS_ENT
  2
AecDbDispPropsEnt
  3
AecBase70|Product Desc: Autodesk Architectural Desktop 2007 |Company: Autodesk,Inc. |WEB Address: www.autodesk.com
 90
      129
 91
        7
280
     0
281
     0
  0
CLASS
  1
AEC_DISP_REP_2D_SECTION
  2
AecDbDispRep2dSection
  3
AecBase70|Product Desc: Autodesk Architectural Desktop 2007 |Company: Autodesk,Inc. |WEB Address: www.autodesk.com
 90
      129
 91
        1
280
     0
281
     0
  0
CLASS
  1
AEC_VARS_DWG_SETUP
  2
AecDbVarsDwgSetup
  3
AecBase70|Product Desc: Autodesk Architectural Desktop 2007 |Company: Autodesk,Inc. |WEB Address: www.autodesk.com
 90
      129
 91
        1
280
     0
281
     0
  0
CLASS
  1
AEC_DISP_PROPS_2D_SECTION
  2
AecDbDispProps2dSection
  3
AecBase70|Product Desc: Autodesk Architectural Desktop 2007 |Company: Autodesk,Inc. |WEB Address: www.autodesk.com
 90
      129
 91
        1
280
     0
281
     0
  0
CLASS
  1
AEC_DISP_REP_ANCHOR
  2
AecDbDispRepAnchor
  3
AecBase70|Product Desc: Autodesk Architectural Desktop 2007 |Company: Autodesk,Inc. |WEB Address: www.autodesk.com
 90
      129
 91
        1
280
     0
281
     0
  0
CLASS
  1
AEC_DISP_REP_ANCHOR_ENT_TO_NODE
  2
AecDbDispRepAnchorEntToNode
  3
AecBase70|Product Desc: Autodesk Architectural Desktop 2007 |Company: Autodesk,Inc. |WEB Address: www.autodesk.com
 90
      129
 91
        1
280
     0
281
     0
  0
CLASS
  1
AEC_DISP_REP_ANCHOR_EXT_TAG_TO_ENT
  2
AecDbDispRepAnchorExtendedTagToEnt
  3
AecBase70|Product Desc: Autodesk Architectural Desktop 2007 |Company: Autodesk,Inc. |WEB Address: www.autodesk.com
 90
      129
 91
        1
280
     0
281
     0
  0
CLASS
  1
AEC_DISP_REP_CLIP_VOLUME_MODEL
  2
AecDbDispRepClipVolModel
  3
AecBase70|Product Desc: Autodesk Architectural Desktop 2007 |Company: Autodesk,Inc. |WEB Address: www.autodesk.com
 90
      129
 91
        1
280
     0
281
     0
  0
CLASS
  1
AEC_DISP_PROPS_CLIP_VOLUME
  2
AecDbDispPropsClipVol
  3
AecBase70|Product Desc: Autodesk Architectural Desktop 2007 |Company: Autodesk,Inc. |WEB Address: www.autodesk.com
 90
      129
 91
       12
280
     0
281
     0
  0
CLASS
  1
AEC_DISP_REP_LAYOUT_GRID2D
  2
AecDbDispRepLayoutGrid2d
  3
AecBase70|Product Desc: Autodesk Architectural Desktop 2007 |Company: Autodesk,Inc. |WEB Address: www.autodesk.com
 90
      129
 91
        1
280
     0
281
     0
  0
CLASS
  1
AEC_DISP_PROPS_LAYOUT_GRID2D
  2
AecDbDispPropsLayoutGrid2d
  3
AecBase70|Product Desc: Autodesk Architectural Desktop 2007 |Company: Autodesk,Inc. |WEB Address: www.autodesk.com
 90
      129
 91
       11
280
     0
281
     0
  0
CLASS
  1
AEC_DISP_REP_EDITINPLACEPROFILE
  2
AecDbDispRepEditInPlaceProfile
  3
AecBase70|Product Desc: Autodesk Architectural Desktop 2007 |Company: Autodesk,Inc. |WEB Address: www.autodesk.com
 90
      129
 91
        1
280
     0
281
     0
  0
CLASS
  1
AEC_DISP_PROPS_EDITINPLACEPROFILE_MODEL
  2
AecDbDispPropsEditInPlaceProfile
  3
AecBase70|Product Desc: Autodesk Architectural Desktop 2007 |Company: Autodesk,Inc. |WEB Address: www.autodesk.com
 90
      129
 91
        1
280
     0
281
     0
  0
CLASS
  1
AEC_DISP_REP_CLIP_VOLUME_PLAN
  2
AecDbDispRepClipVolPlan
  3
AecBase70|Product Desc: Autodesk Architectural Desktop 2007 |Company: Autodesk,Inc. |WEB Address: www.autodesk.com
 90
      129
 91
        1
280
     0
281
     0
  0
CLASS
  1
AEC_DISP_REP_ENT_REF
  2
AecDbDispRepEntRef
  3
AecBase70|Product Desc: Autodesk Architectural Desktop 2007 |Company: Autodesk,Inc. |WEB Address: www.autodesk.com
 90
      129
 91
        1
280
     0
281
     0
  0
CLASS
  1
AEC_DISP_PROPS_ENT_REF
  2
AecDbDispPropsEntRef
  3
AecBase70|Product Desc: Autodesk Architectural Desktop 2007 |Company: Autodesk,Inc. |WEB Address: www.autodesk.com
 90
      129
 91
        1
280
     0
281
     0
  0
CLASS
  1
AEC_DISP_REP_LAYOUT_CURVE
  2
AecDbDispRepLayoutCurve
  3
AecBase70|Product Desc: Autodesk Architectural Desktop 2007 |Company: Autodesk,Inc. |WEB Address: www.autodesk.com
 90
      129
 91
        1
280
     0
281
     0
  0
CLASS
  1
AEC_DISP_PROPS_LAYOUT_CURVE
  2
AecDbDispPropsLayoutCurve
  3
AecBase70|Product Desc: Autodesk Architectural Desktop 2007 |Company: Autodesk,Inc. |WEB Address: www.autodesk.com
 90
      129
 91
        1
280
     0
281
     0
  0
CLASS
  1
AEC_DISP_REP_CLIP_VOLUME_RESULT_SUBDIV
  2
AecDbDispRepClipVolResSubDiv
  3
AecBase70|Product Desc: Autodesk Architectural Desktop 2007 |Company: Autodesk,Inc. |WEB Address: www.autodesk.com
 90
      129
 91
        1
280
     0
281
     0
  0
CLASS
  1
AEC_DISP_PROPS_CLIP_VOLUME_RESULT
  2
AecDbDispPropsClipVolResSubDiv
  3
AecBase70|Product Desc: Autodesk Architectural Desktop 2007 |Company: Autodesk,Inc. |WEB Address: www.autodesk.com
 90
      129
 91
        2
280
     0
281
     0
  0
CLASS
  1
AEC_DISP_REP_LAYOUT_GRID3D
  2
AecDbDispRepLayoutGrid3d
  3
AecBase70|Product Desc: Autodesk Architectural Desktop 2007 |Company: Autodesk,Inc. |WEB Address: www.autodesk.com
 90
      129
 91
        1
280
     0
281
     0
  0
CLASS
  1
AEC_DISP_PROPS_LAYOUT_GRID3D
  2
AecDbDispPropsLayoutGrid3d
  3
AecBase70|Product Desc: Autodesk Architectural Desktop 2007 |Company: Autodesk,Inc. |WEB Address: www.autodesk.com
 90
      129
 91
        1
280
     0
281
     0
  0
CLASS
  1
AEC_DISP_REP_MVBLOCK_REF_MODEL
  2
AecDbDispRepMvBlockRefModel
  3
AecBase70|Product Desc: Autodesk Architectural Desktop 2007 |Company: Autodesk,Inc. |WEB Address: www.autodesk.com
 90
      129
 91
        1
280
     0
281
     0
  0
CLASS
  1
AEC_DISP_REP_MASKBLOCK_REF
  2
AecDbDispRepMaskBlockRef
  3
AecBase70|Product Desc: Autodesk Architectural Desktop 2007 |Company: Autodesk,Inc. |WEB Address: www.autodesk.com
 90
      129
 91
        1
280
     0
281
     0
  0
CLASS
  1
AEC_DISP_PROPS_MASKBLOCK
  2
AecDbDispPropsMaskBlock
  3
AecBase70|Product Desc: Autodesk Architectural Desktop 2007 |Company: Autodesk,Inc. |WEB Address: www.autodesk.com
 90
      129
 91
        2
280
     0
281
     0
  0
CLASS
  1
AEC_DISP_REP_CLIP_VOLUME_RESULT
  2
AecDbDispRepClipVolResult
  3
AecBase70|Product Desc: Autodesk Architectural Desktop 2007 |Company: Autodesk,Inc. |WEB Address: www.autodesk.com
 90
      129
 91
        1
280
     0
281
     0
  0
CLASS
  1
AEC_DISP_REP_MVBLOCK_REF
  2
AecDbDispRepMvBlockRef
  3
AecBase70|Product Desc: Autodesk Architectural Desktop 2007 |Company: Autodesk,Inc. |WEB Address: www.autodesk.com
 90
      129
 91
        2
280
     0
281
     0
  0
CLASS
  1
AEC_DISP_REP_POLYGON_MODEL
  2
AecDbDispRepPolygonModel
  3
AecBase70|Product Desc: Autodesk Architectural Desktop 2007 |Company: Autodesk,Inc. |WEB Address: www.autodesk.com
 90
      129
 91
        1
280
     0
281
     0
  0
CLASS
  1
AEC_DISP_PROPS_POLYGON_MODEL
  2
AecDbDispPropsPolygonModel
  3
AecBase70|Product Desc: Autodesk Architectural Desktop 2007 |Company: Autodesk,Inc. |WEB Address: www.autodesk.com
 90
      129
 91
        1
280
     0
281
     0
  0
CLASS
  1
AEC_DISP_REP_POLYGON_TRUECOLOUR
  2
AecDbDispRepPolygonTrueColour
  3
AecBase70|Product Desc: Autodesk Architectural Desktop 2007 |Company: Autodesk,Inc. |WEB Address: www.autodesk.com
 90
      129
 91
        1
280
     0
281
     0
  0
CLASS
  1
AEC_DISP_PROPS_POLYGON_TRUECOLOUR
  2
AecDbDispPropsPolygonTrueColour
  3
AecBase70|Product Desc: Autodesk Architectural Desktop 2007 |Company: Autodesk,Inc. |WEB Address: www.autodesk.com
 90
      129
 91
        1
280
     0
281
     0
  0
CLASS
  1
AEC_DISP_REP_MATERIAL
  2
AecDbDispRepMaterial
  3
AecBase70|Product Desc: Autodesk Architectural Desktop 2007 |Company: Autodesk,Inc. |WEB Address: www.autodesk.com
 90
      129
 91
        2
280
     0
281
     0
  0
CLASS
  1
AEC_DISP_PROPS_MATERIAL
  2
AecDbDispPropsMaterial
  3
AecBase70|Product Desc: Autodesk Architectural Desktop 2007 |Company: Autodesk,Inc. |WEB Address: www.autodesk.com
 90
      129
 91
        2
280
     0
281
     0
  0
CLASS
  1
AEC_DISP_REP_DISPLAYTHEME
  2
AecDbDispRepDisplayTheme
  3
AecBase70|Product Desc: Autodesk Architectural Desktop 2007 |Company: Autodesk,Inc. |WEB Address: www.autodesk.com
 90
      129
 91
        1
280
     0
281
     0
  0
CLASS
  1
AEC_DISP_PROPS_DISPLAYTHEME
  2
AecDbDispPropsDisplayTheme
  3
AecBase70|Product Desc: Autodesk Architectural Desktop 2007 |Company: Autodesk,Inc. |WEB Address: www.autodesk.com
 90
      129
 91
        1
280
     0
281
     0
  0
CLASS
  1
AEC_DISP_REP_SLICE
  2
AecDbDispRepSlice
  3
AecBase70|Product Desc: Autodesk Architectural Desktop 2007 |Company: Autodesk,Inc. |WEB Address: www.autodesk.com
 90
      129
 91
        1
280
     0
281
     0
  0
CLASS
  1
AEC_DISP_PROPS_SLICE
  2
AecDbDispPropsSlice
  3
AecBase70|Product Desc: Autodesk Architectural Desktop 2007 |Company: Autodesk,Inc. |WEB Address: www.autodesk.com
 90
      129
 91
        1
280
     0
281
     0
  0
CLASS
  1
AEC_DISP_REP_MASS_ELEM_SCHEM
  2
AecDbDispRepMassElemSchem
  3
AecBaseEx70|Product Desc: Autodesk Architectural Desktop 2007 |Company: Autodesk,Inc. |WEB Address: www.autodesk.com
 90
      129
 91
        1
280
     0
281
     0
  0
CLASS
  1
AEC_DISP_PROPS_MASS_ELEM_MODEL
  2
AecDbDispPropsMassElem
  3
AecBaseEx70|Product Desc: Autodesk Architectural Desktop 2007 |Company: Autodesk,Inc. |WEB Address: www.autodesk.com
 90
      129
 91
        3
280
     0
281
     0
  0
CLASS
  1
AEC_DISP_REP_MASS_GROUP_PLAN
  2
AecDbDispRepMassGroupPlan
  3
AecBaseEx70|Product Desc: Autodesk Architectural Desktop 2007 |Company: Autodesk,Inc. |WEB Address: www.autodesk.com
 90
      129
 91
        1
280
     0
281
     0
  0
CLASS
  1
AEC_DISP_PROPS_MASS_GROUP
  2
AecDbDispPropsMassGroup
  3
AecBaseEx70|Product Desc: Autodesk Architectural Desktop 2007 |Company: Autodesk,Inc. |WEB Address: www.autodesk.com
 90
      129
 91
        3
280
     0
281
     0
  0
CLASS
  1
AEC_DISP_REP_MASS_GROUP_MODEL
  2
AecDbDispRepMassGroupModel
  3
AecBaseEx70|Product Desc: Autodesk Architectural Desktop 2007 |Company: Autodesk,Inc. |WEB Address: www.autodesk.com
 90
      129
 91
        1
280
     0
281
     0
  0
CLASS
  1
AEC_DISP_REP_MASS_ELEM_MODEL
  2
AecDbDispRepMassElemModel
  3
AecBaseEx70|Product Desc: Autodesk Architectural Desktop 2007 |Company: Autodesk,Inc. |WEB Address: www.autodesk.com
 90
      129
 91
        1
280
     0
281
     0
  0
CLASS
  1
AEC_DISP_REP_WINDOW_ELEV
  2
AecDbDispRepWindowElev
  3
AecArchBase70|Product Desc: Autodesk Architectural Desktop 2007 |Company: Autodesk,Inc. |WEB Address: www.autodesk.com
 90
      129
 91
        1
280
     0
281
     0
  0
CLASS
  1
AEC_DISP_PROPS_WINDOW
  2
AecDbDispPropsWindow
  3
AecArchBase70|Product Desc: Autodesk Architectural Desktop 2007 |Company: Autodesk,Inc. |WEB Address: www.autodesk.com
 90
      129
 91
        4
280
     0
281
     0
  0
CLASS
  1
AEC_DISP_REP_WALL_MODEL
  2
AecDbDispRepWallModel
  3
AecArchBase70|Product Desc: Autodesk Architectural Desktop 2007 |Company: Autodesk,Inc. |WEB Address: www.autodesk.com
 90
      129
 91
        1
280
     0
281
     0
  0
CLASS
  1
AEC_DISP_PROPS_WALL_MODEL
  2
AecDbDispPropsWallModel
  3
AecArchBase70|Product Desc: Autodesk Architectural Desktop 2007 |Company: Autodesk,Inc. |WEB Address: www.autodesk.com
 90
      129
 91
        1
280
     0
281
     0
  0
CLASS
  1
AEC_DISP_REP_WINDOW_PLAN_50
  2
AecDbDispRepWindowPlan50
  3
AecArchBase70|Product Desc: Autodesk Architectural Desktop 2007 |Company: Autodesk,Inc. |WEB Address: www.autodesk.com
 90
      129
 91
        1
280
     0
281
     0
  0
CLASS
  1
AEC_DISP_PROPS_WINDOW_PLAN_50
  2
AecDbDispPropsWindowPlan50
  3
AecArchBase70|Product Desc: Autodesk Architectural Desktop 2007 |Company: Autodesk,Inc. |WEB Address: www.autodesk.com
 90
      129
 91
        1
280
     0
281
     0
  0
CLASS
  1
AEC_DISP_REP_WALL_RCP
  2
AecDbDispRepWallRcp
  3
AecArchBase70|Product Desc: Autodesk Architectural Desktop 2007 |Company: Autodesk,Inc. |WEB Address: www.autodesk.com
 90
      129
 91
        1
280
     0
281
     0
  0
CLASS
  1
AEC_DISP_PROPS_WALL_PLAN
  2
AecDbDispPropsWallPlan
  3
AecArchBase70|Product Desc: Autodesk Architectural Desktop 2007 |Company: Autodesk,Inc. |WEB Address: www.autodesk.com
 90
      129
 91
        4
280
     0
281
     0
  0
CLASS
  1
AEC_DISP_REP_WINDOW_PLAN
  2
AecDbDispRepWindowPlan
  3
AecArchBase70|Product Desc: Autodesk Architectural Desktop 2007 |Company: Autodesk,Inc. |WEB Address: www.autodesk.com
 90
      129
 91
        1
280
     0
281
     0
  0
CLASS
  1
AEC_DISP_REP_WINDOW_PLAN_100
  2
AecDbDispRepWindowPlan100
  3
AecArchBase70|Product Desc: Autodesk Architectural Desktop 2007 |Company: Autodesk,Inc. |WEB Address: www.autodesk.com
 90
      129
 91
        1
280
     0
281
     0
  0
CLASS
  1
AEC_DISP_PROPS_WINDOW_PLAN_100
  2
AecDbDispPropsWindowPlan100
  3
AecArchBase70|Product Desc: Autodesk Architectural Desktop 2007 |Company: Autodesk,Inc. |WEB Address: www.autodesk.com
 90
      129
 91
        1
280
     0
281
     0
  0
CLASS
  1
AEC_DISP_REP_WINDOW_SILL_PLAN
  2
AecDbDispRepWindowSillPlan
  3
AecArchBase70|Product Desc: Autodesk Architectural Desktop 2007 |Company: Autodesk,Inc. |WEB Address: www.autodesk.com
 90
      129
 91
        1
280
     0
281
     0
  0
CLASS
  1
AEC_DISP_PROPS_WINDOW_SILL_PLAN
  2
AecDbDispPropsWindowSillPlan
  3
AecArchBase70|Product Desc: Autodesk Architectural Desktop 2007 |Company: Autodesk,Inc. |WEB Address: www.autodesk.com
 90
      129
 91
        1
280
     0
281
     0
  0
CLASS
  1
AEC_DISP_REP_WINDOW_MODEL
  2
AecDbDispRepWindowModel
  3
AecArchBase70|Product Desc: Autodesk Architectural Desktop 2007 |Company: Autodesk,Inc. |WEB Address: www.autodesk.com
 90
      129
 91
        1
280
     0
281
     0
  0
CLASS
  1
AEC_DISP_REP_STAIR_RCP
  2
AecDbDispRepStairRcp
  3
AecArchBase70|Product Desc: Autodesk Architectural Desktop 2007 |Company: Autodesk,Inc. |WEB Address: www.autodesk.com
 90
      129
 91
        1
280
     0
281
     0
  0
CLASS
  1
AEC_DISP_PROPS_STAIR_PLAN
  2
AecDbDispPropsStairPlan
  3
AecArchBase70|Product Desc: Autodesk Architectural Desktop 2007 |Company: Autodesk,Inc. |WEB Address: www.autodesk.com
 90
      129
 91
        2
280
     0
281
     0
  0
CLASS
  1
AEC_DISP_REP_STAIR_PLAN_OVERLAPPING
  2
AecDbDispRepStairPlanOverlapping
  3
AecArchBase70|Product Desc: Autodesk Architectural Desktop 2007 |Company: Autodesk,Inc. |WEB Address: www.autodesk.com
 90
      129
 91
        1
280
     0
281
     0
  0
CLASS
  1
AEC_DISP_PROPS_STAIR_PLAN_OVERLAPPING
  2
AecDbDispPropsStairPlanOverlapping
  3
AecArchBase70|Product Desc: Autodesk Architectural Desktop 2007 |Company: Autodesk,Inc. |WEB Address: www.autodesk.com
 90
      129
 91
        1
280
     0
281
     0
  0
CLASS
  1
AEC_DISP_REP_WINDOWASSEMBLY_SILL_PLAN
  2
AecDbDispRepWindowAssemblySillPlan
  3
AecArchBase70|Product Desc: Autodesk Architectural Desktop 2007 |Company: Autodesk,Inc. |WEB Address: www.autodesk.com
 90
      129
 91
        1
280
     0
281
     0
  0
CLASS
  1
AEC_DISP_PROPS_WINDOW_ASSEMBLY_SILL_PLAN
  2
AecDbDispPropsWindowAssemblySillPlan
  3
AecArchBase70|Product Desc: Autodesk Architectural Desktop 2007 |Company: Autodesk,Inc. |WEB Address: www.autodesk.com
 90
      129
 91
        1
280
     0
281
     0
  0
CLASS
  1
AEC_DISP_REP_WALL_GRAPH
  2
AecDbDispRepWallGraph
  3
AecArchBase70|Product Desc: Autodesk Architectural Desktop 2007 |Company: Autodesk,Inc. |WEB Address: www.autodesk.com
 90
      129
 91
        1
280
     0
281
     0
  0
CLASS
  1
AEC_DISP_PROPS_WALL_GRAPH
  2
AecDbDispPropsWallGraph
  3
AecArchBase70|Product Desc: Autodesk Architectural Desktop 2007 |Company: Autodesk,Inc. |WEB Address: www.autodesk.com
 90
      129
 91
        1
280
     0
281
     0
  0
CLASS
  1
AEC_DISP_REP_WALL_SCHEM
  2
AecDbDispRepWallSchem
  3
AecArchBase70|Product Desc: Autodesk Architectural Desktop 2007 |Company: Autodesk,Inc. |WEB Address: www.autodesk.com
 90
      129
 91
        1
280
     0
281
     0
  0
CLASS
  1
AEC_DISP_PROPS_WALL_SCHEM
  2
AecDbDispPropsWallSchem
  3
AecArchBase70|Product Desc: Autodesk Architectural Desktop 2007 |Company: Autodesk,Inc. |WEB Address: www.autodesk.com
 90
      129
 91
        1
280
     0
281
     0
  0
CLASS
  1
AEC_DISP_REP_WINDOW_ASSEMBLY_MODEL
  2
AecDbDispRepWindowAssemblyModel
  3
AecArchBase70|Product Desc: Autodesk Architectural Desktop 2007 |Company: Autodesk,Inc. |WEB Address: www.autodesk.com
 90
      129
 91
        1
280
     0
281
     0
  0
CLASS
  1
AEC_DISP_PROPS_GRID_ASSEMBLY_MODEL
  2
AecDbDispPropsGridAssemblyModel
  3
AecArchBase70|Product Desc: Autodesk Architectural Desktop 2007 |Company: Autodesk,Inc. |WEB Address: www.autodesk.com
 90
      129
 91
        3
280
     0
281
     0
  0
CLASS
  1
AEC_DISP_REP_WINDOW_RCP
  2
AecDbDispRepWindowRcp
  3
AecArchBase70|Product Desc: Autodesk Architectural Desktop 2007 |Company: Autodesk,Inc. |WEB Address: www.autodesk.com
 90
      129
 91
        1
280
     0
281
     0
  0
CLASS
  1
AEC_DISP_REP_WINDOW_NOMINAL
  2
AecDbDispRepWindowNominal
  3
AecArchBase70|Product Desc: Autodesk Architectural Desktop 2007 |Company: Autodesk,Inc. |WEB Address: www.autodesk.com
 90
      129
 91
        1
280
     0
281
     0
  0
CLASS
  1
AEC_DISP_PROPS_WINDOW_NOMINAL
  2
AecDbDispPropsWindowNominal
  3
AecArchBase70|Product Desc: Autodesk Architectural Desktop 2007 |Company: Autodesk,Inc. |WEB Address: www.autodesk.com
 90
      129
 91
        1
280
     0
281
     0
  0
CLASS
  1
AEC_DISP_REP_BDG_SECTIONLINE_PLAN
  2
AecDbDispRepBdgElevLinePlan
  3
AecArchBase70|Product Desc: Autodesk Architectural Desktop 2007 |Company: Autodesk,Inc. |WEB Address: www.autodesk.com
 90
      129
 91
        1
280
     0
281
     0
  0
CLASS
  1
AEC_AECDBDISPREPCEILINGGRIDPLAN100
  2
AecDbDispRepCeilingGridPlan100
  3
AecArchBase70|Product Desc: Autodesk Architectural Desktop 2007 |Company: Autodesk,Inc. |WEB Address: www.autodesk.com
 90
      129
 91
        1
280
     0
281
     0
  0
CLASS
  1
AEC_AECDBDISPREPBDGELEVLINEPLAN100
  2
AecDbDispRepBdgElevLinePlan100
  3
AecArchBase70|Product Desc: Autodesk Architectural Desktop 2007 |Company: Autodesk,Inc. |WEB Address: www.autodesk.com
 90
      129
 91
        1
280
     0
281
     0
  0
CLASS
  1
AEC_AECDBDISPREPBDGSECTIONLINEPLAN100
  2
AecDbDispRepBdgSectionLinePlan100
  3
AecArchBase70|Product Desc: Autodesk Architectural Desktop 2007 |Company: Autodesk,Inc. |WEB Address: www.autodesk.com
 90
      129
 91
        1
280
     0
281
     0
  0
CLASS
  1
AEC_DISP_REP_CURTAIN_WALL_LAYOUT_PLAN
  2
AecDbDispRepCurtainWallLayoutPlan
  3
AecArchBase70|Product Desc: Autodesk Architectural Desktop 2007 |Company: Autodesk,Inc. |WEB Address: www.autodesk.com
 90
      129
 91
        1
280
     0
281
     0
  0
CLASS
  1
AEC_DISP_PROPS_GRID_ASSEMBLY_PLAN
  2
AecDbDispPropsGridAssemblyPlan
  3
AecArchBase70|Product Desc: Autodesk Architectural Desktop 2007 |Company: Autodesk,Inc. |WEB Address: www.autodesk.com
 90
      129
 91
        9
280
     0
281
     0
  0
CLASS
  1
AEC_DISP_REP_CEILING_GRID
  2
AecDbDispRepCeilingGrid
  3
AecArchBase70|Product Desc: Autodesk Architectural Desktop 2007 |Company: Autodesk,Inc. |WEB Address: www.autodesk.com
 90
      893
 91
        1
280
     0
281
     0
  0
CLASS
  1
AEC_AECDBDISPREPCOLUMNGRIDPLAN100
  2
AecDbDispRepColumnGridPlan100
  3
AecArchBase70|Product Desc: Autodesk Architectural Desktop 2007 |Company: Autodesk,Inc. |WEB Address: www.autodesk.com
 90
      129
 91
        1
280
     0
281
     0
  0
CLASS
  1
AEC_DISP_REP_CURTAIN_WALL_UNIT_PLAN
  2
AecDbDispRepCurtainWallUnitPlan
  3
AecArchBase70|Product Desc: Autodesk Architectural Desktop 2007 |Company: Autodesk,Inc. |WEB Address: www.autodesk.com
 90
      129
 91
        1
280
     0
281
     0
  0
CLASS
  1
AEC_AECDBDISPREPCURTAINWALLUNITPLAN100
  2
AecDbDispRepCurtainWallUnitPlan100
  3
AecArchBase70|Product Desc: Autodesk Architectural Desktop 2007 |Company: Autodesk,Inc. |WEB Address: www.autodesk.com
 90
      129
 91
        1
280
     0
281
     0
  0
CLASS
  1
AEC_DISP_REP_BDG_SECTIONLINE_PLAN
  2
AecDbDispRepBdgSectionLinePlan
  3
AecArchBase70|Product Desc: Autodesk Architectural Desktop 2007 |Company: Autodesk,Inc. |WEB Address: www.autodesk.com
 90
      129
 91
        1
280
     0
281
     0
  0
CLASS
  1
AEC_DISP_REP_COLUMN_GRID
  2
AecDbDispRepColumnGrid
  3
AecArchBase70|Product Desc: Autodesk Architectural Desktop 2007 |Company: Autodesk,Inc. |WEB Address: www.autodesk.com
 90
      129
 91
        1
280
     0
281
     0
  0
CLASS
  1
AEC_AECDBDISPREPCURTAINWALLLAYOUTPLAN100
  2
AecDbDispRepCurtainWallLayoutPlan100
  3
AecArchBase70|Product Desc: Autodesk Architectural Desktop 2007 |Company: Autodesk,Inc. |WEB Address: www.autodesk.com
 90
      129
 91
        1
280
     0
281
     0
  0
CLASS
  1
AEC_AECDBDISPREPMVBLOCKREFPLAN100
  2
AecDbDispRepMvBlockRefPlan100
  3
AecArchBase70|Product Desc: Autodesk Architectural Desktop 2007 |Company: Autodesk,Inc. |WEB Address: www.autodesk.com
 90
      129
 91
        1
280
     0
281
     0
  0
CLASS
  1
AEC_DISP_REP_ROOFSLAB_PLAN
  2
AecDbDispRepRoofSlabPlan
  3
AecArchBase70|Product Desc: Autodesk Architectural Desktop 2007 |Company: Autodesk,Inc. |WEB Address: www.autodesk.com
 90
      129
 91
        1
280
     0
281
     0
  0
CLASS
  1
AEC_DISP_PROPS_ROOFSLAB_PLAN
  2
AecDbDispPropsRoofSlabPlan
  3
AecArchBase70|Product Desc: Autodesk Architectural Desktop 2007 |Company: Autodesk,Inc. |WEB Address: www.autodesk.com
 90
      129
 91
        3
280
     0
281
     0
  0
CLASS
  1
AEC_DISP_REP_ROOF_PLAN
  2
AecDbDispRepRoofPlan
  3
AecArchBase70|Product Desc: Autodesk Architectural Desktop 2007 |Company: Autodesk,Inc. |WEB Address: www.autodesk.com
 90
      129
 91
        1
280
     0
281
     0
  0
CLASS
  1
AEC_DISP_PROPS_ROOF
  2
AecDbDispPropsRoof
  3
AecArchBase70|Product Desc: Autodesk Architectural Desktop 2007 |Company: Autodesk,Inc. |WEB Address: www.autodesk.com
 90
      129
 91
        5
280
     0
281
     0
  0
CLASS
  1
AEC_AECDBDISPREPSLABPLAN100
  2
AecDbDispRepSlabPlan100
  3
AecArchBase70|Product Desc: Autodesk Architectural Desktop 2007 |Company: Autodesk,Inc. |WEB Address: www.autodesk.com
 90
      129
 91
        1
280
     0
281
     0
  0
CLASS
  1
AEC_DISP_PROPS_SLAB_PLAN
  2
AecDbDispPropsSlabPlan
  3
AecArchBase70|Product Desc: Autodesk Architectural Desktop 2007 |Company: Autodesk,Inc. |WEB Address: www.autodesk.com
 90
      129
 91
        3
280
     0
281
     0
  0
CLASS
  1
AEC_DISP_REP_SPACE_PLAN
  2
AecDbDispRepSpacePlan
  3
AecArchBase70|Product Desc: Autodesk Architectural Desktop 2007 |Company: Autodesk,Inc. |WEB Address: www.autodesk.com
 90
      129
 91
        1
280
     0
281
     0
  0
CLASS
  1
AEC_DISP_PROPS_SPACE_PLAN
  2
AecDbDispPropsSpacePlan
  3
AecArchBase70|Product Desc: Autodesk Architectural Desktop 2007 |Company: Autodesk,Inc. |WEB Address: www.autodesk.com
 90
      129
 91
        4
280
     0
281
     0
  0
CLASS
  1
AEC_AECDBDISPREPROOFSLABPLAN100
  2
AecDbDispRepRoofSlabPlan100
  3
AecArchBase70|Product Desc: Autodesk Architectural Desktop 2007 |Company: Autodesk,Inc. |WEB Address: www.autodesk.com
 90
      129
 91
        1
280
     0
281
     0
  0
CLASS
  1
AEC_AECDBDISPREPSPACEPLAN100
  2
AecDbDispRepSpacePlan100
  3
AecArchBase70|Product Desc: Autodesk Architectural Desktop 2007 |Company: Autodesk,Inc. |WEB Address: www.autodesk.com
 90
      129
 91
        1
280
     0
281
     0
  0
CLASS
  1
AEC_AECDBDISPREPWALLPLAN100
  2
AecDbDispRepWallPlan100
  3
AecArchBase70|Product Desc: Autodesk Architectural Desktop 2007 |Company: Autodesk,Inc. |WEB Address: www.autodesk.com
 90
      129
 91
        1
280
     0
281
     0
  0
CLASS
  1
AEC_DISP_REP_SLAB_PLAN
  2
AecDbDispRepSlabPlan
  3
AecArchBase70|Product Desc: Autodesk Architectural Desktop 2007 |Company: Autodesk,Inc. |WEB Address: www.autodesk.com
 90
      129
 91
        1
280
     0
281
     0
  0
CLASS
  1
AEC_DISP_REP_WALL_PLAN
  2
AecDbDispRepWallPlan
  3
AecArchBase70|Product Desc: Autodesk Architectural Desktop 2007 |Company: Autodesk,Inc. |WEB Address: www.autodesk.com
 90
      129
 91
        1
280
     0
281
     0
  0
CLASS
  1
AEC_AECDBDISPREPROOFPLAN100
  2
AecDbDispRepRoofPlan100
  3
AecArchBase70|Product Desc: Autodesk Architectural Desktop 2007 |Company: Autodesk,Inc. |WEB Address: www.autodesk.com
 90
      129
 91
        1
280
     0
281
     0
  0
CLASS
  1
AEC_AECDBDISPREPZONE100
  2
AecDbDispRepZonePlan100
  3
AecArchBase70|Product Desc: Autodesk Architectural Desktop 2007 |Company: Autodesk,Inc. |WEB Address: www.autodesk.com
 90
      129
 91
        1
280
     0
281
     0
  0
CLASS
  1
AEC_DISP_PROPS_ZONE
  2
AecDbDispPropsZone
  3
AecArchBase70|Product Desc: Autodesk Architectural Desktop 2007 |Company: Autodesk,Inc. |WEB Address: www.autodesk.com
 90
      129
 91
        3
280
     0
281
     0
  0
CLASS
  1
AEC_DISP_REP_ZONE
  2
AecDbDispRepZone
  3
AecArchBase70|Product Desc: Autodesk Architectural Desktop 2007 |Company: Autodesk,Inc. |WEB Address: www.autodesk.com
 90
      129
 91
        1
280
     0
281
     0
  0
CLASS
  1
AEC_AECDBDISPREPCURTAINWALLUNITPLAN50
  2
AecDbDispRepCurtainWallUnitPlan50
  3
AecArchBase70|Product Desc: Autodesk Architectural Desktop 2007 |Company: Autodesk,Inc. |WEB Address: www.autodesk.com
 90
      129
 91
        1
280
     0
281
     0
  0
CLASS
  1
AEC_AECDBDISPREPCOLUMNGRIDPLAN50
  2
AecDbDispRepColumnGridPlan50
  3
AecArchBase70|Product Desc: Autodesk Architectural Desktop 2007 |Company: Autodesk,Inc. |WEB Address: www.autodesk.com
 90
      129
 91
        1
280
     0
281
     0
  0
CLASS
  1
AEC_AECDBDISPREPBDGSECTIONLINEPLAN50
  2
AecDbDispRepBdgSectionLinePlan50
  3
AecArchBase70|Product Desc: Autodesk Architectural Desktop 2007 |Company: Autodesk,Inc. |WEB Address: www.autodesk.com
 90
      129
 91
        1
280
     0
281
     0
  0
CLASS
  1
AEC_AECDBDISPREPMVBLOCKREFPLAN50
  2
AecDbDispRepMvBlockRefPlan50
  3
AecArchBase70|Product Desc: Autodesk Architectural Desktop 2007 |Company: Autodesk,Inc. |WEB Address: www.autodesk.com
 90
      129
 91
        1
280
     0
281
     0
  0
CLASS
  1
AEC_DISP_REP_WINDOW_ASSEMBLY_PLAN
  2
AecDbDispRepWindowAssemblyPlan
  3
AecArchBase70|Product Desc: Autodesk Architectural Desktop 2007 |Company: Autodesk,Inc. |WEB Address: www.autodesk.com
 90
      129
 91
        1
280
     0
281
     0
  0
CLASS
  1
AEC_AECDBDISPREPWINDOWASSEMBLYPLAN100
  2
AecDbDispRepWindowAssemblyPlan100
  3
AecArchBase70|Product Desc: Autodesk Architectural Desktop 2007 |Company: Autodesk,Inc. |WEB Address: www.autodesk.com
 90
      129
 91
        1
280
     0
281
     0
  0
CLASS
  1
AEC_AECDBDISPREPCEILINGGRIDPLAN50
  2
AecDbDispRepCeilingGridPlan50
  3
AecArchBase70|Product Desc: Autodesk Architectural Desktop 2007 |Company: Autodesk,Inc. |WEB Address: www.autodesk.com
 90
      129
 91
        1
280
     0
281
     0
  0
CLASS
  1
AEC_AECDBDISPREPROOFPLAN50
  2
AecDbDispRepRoofPlan50
  3
AecArchBase70|Product Desc: Autodesk Architectural Desktop 2007 |Company: Autodesk,Inc. |WEB Address: www.autodesk.com
 90
      129
 91
        1
280
     0
281
     0
  0
CLASS
  1
AEC_AECDBDISPREPSLABPLAN50
  2
AecDbDispRepSlabPlan50
  3
AecArchBase70|Product Desc: Autodesk Architectural Desktop 2007 |Company: Autodesk,Inc. |WEB Address: www.autodesk.com
 90
      129
 91
        1
280
     0
281
     0
  0
CLASS
  1
AEC_AECDBDISPREPBDGELEVLINEPLAN50
  2
AecDbDispRepBdgElevLinePlan50
  3
AecArchBase70|Product Desc: Autodesk Architectural Desktop 2007 |Company: Autodesk,Inc. |WEB Address: www.autodesk.com
 90
      129
 91
        1
280
     0
281
     0
  0
CLASS
  1
AEC_AECDBDISPREPCURTAINWALLLAYOUTPLAN50
  2
AecDbDispRepCurtainWallLayoutPlan50
  3
AecArchBase70|Product Desc: Autodesk Architectural Desktop 2007 |Company: Autodesk,Inc. |WEB Address: www.autodesk.com
 90
      129
 91
        1
280
     0
281
     0
  0
CLASS
  1
AEC_AECDBDISPREPROOFSLABPLAN50
  2
AecDbDispRepRoofSlabPlan50
  3
AecArchBase70|Product Desc: Autodesk Architectural Desktop 2007 |Company: Autodesk,Inc. |WEB Address: www.autodesk.com
 90
      129
 91
        1
280
     0
281
     0
  0
CLASS
  1
AEC_AECDBDISPREPWALLPLAN50
  2
AecDbDispRepWallPlan50
  3
AecArchBase70|Product Desc: Autodesk Architectural Desktop 2007 |Company: Autodesk,Inc. |WEB Address: www.autodesk.com
 90
      129
 91
        1
280
     0
281
     0
  0
CLASS
  1
AEC_AECDBDISPREPSPACEPLAN50
  2
AecDbDispRepSpacePlan50
  3
AecArchBase70|Product Desc: Autodesk Architectural Desktop 2007 |Company: Autodesk,Inc. |WEB Address: www.autodesk.com
 90
      129
 91
        1
280
     0
281
     0
  0
CLASS
  1
AEC_AECDBDISPREPZONE50
  2
AecDbDispRepZonePlan50
  3
AecArchBase70|Product Desc: Autodesk Architectural Desktop 2007 |Company: Autodesk,Inc. |WEB Address: www.autodesk.com
 90
      129
 91
        1
280
     0
281
     0
  0
CLASS
  1
AEC_AECDBDISPREPWINDOWASSEMBLYPLAN50
  2
AecDbDispRepWindowAssemblyPlan50
  3
AecArchBase70|Product Desc: Autodesk Architectural Desktop 2007 |Company: Autodesk,Inc. |WEB Address: www.autodesk.com
 90
      129
 91
        1
280
     0
281
     0
  0
CLASS
  1
AEC_DISP_REP_ANCHOR_BUB_TO_GRID
  2
AecDbDispRepAnchorBubToGrid
  3
AecArchBase70|Product Desc: Autodesk Architectural Desktop 2007 |Company: Autodesk,Inc. |WEB Address: www.autodesk.com
 90
      129
 91
        1
280
     0
281
     0
  0
CLASS
  1
AEC_DISP_REP_CEILING_GRID_RCP
  2
AecDbDispRepCeilingGridRcp
  3
AecArchBase70|Product Desc: Autodesk Architectural Desktop 2007 |Company: Autodesk,Inc. |WEB Address: www.autodesk.com
 90
      129
 91
        1
280
     0
281
     0
  0
CLASS
  1
AEC_DISP_REP_ANCHOR_BUB_TO_GRID_RCP
  2
AecDbDispRepAnchorBubToGridRcp
  3
AecArchBase70|Product Desc: Autodesk Architectural Desktop 2007 |Company: Autodesk,Inc. |WEB Address: www.autodesk.com
 90
      129
 91
        1
280
     0
281
     0
  0
CLASS
  1
AEC_DISP_REP_CURTAIN_WALL_UNIT_MODEL
  2
AecDbDispRepCurtainWallUnitModel
  3
AecArchBase70|Product Desc: Autodesk Architectural Desktop 2007 |Company: Autodesk,Inc. |WEB Address: www.autodesk.com
 90
      129
 91
        1
280
     0
281
     0
  0
CLASS
  1
AEC_DB_DISP_REP_DIM_GROUP_PLAN100
  2
AecDbDispRepDimGroupPlan100
  3
AecArchBase70|Product Desc: Autodesk Architectural Desktop 2007 |Company: Autodesk,Inc. |WEB Address: www.autodesk.com
 90
      129
 91
        1
280
     0
281
     0
  0
CLASS
  1
AEC_DISP_PROPS_DIM
  2
AecDbDispPropsDimGroup
  3
AecArchBase70|Product Desc: Autodesk Architectural Desktop 2007 |Company: Autodesk,Inc. |WEB Address: www.autodesk.com
 90
      129
 91
        3
280
     0
281
     0
  0
CLASS
  1
AEC_DISP_REP_BDG_ELEVLINE_RCP
  2
AecDbDispRepBdgElevLineRcp
  3
AecArchBase70|Product Desc: Autodesk Architectural Desktop 2007 |Company: Autodesk,Inc. |WEB Address: www.autodesk.com
 90
      129
 91
        1
280
     0
281
     0
  0
CLASS
  1
AEC_DISP_REP_BDG_SECTION_MODEL
  2
AecDbDispRepBdgSectionModel
  3
AecArchBase70|Product Desc: Autodesk Architectural Desktop 2007 |Company: Autodesk,Inc. |WEB Address: www.autodesk.com
 90
      129
 91
        1
280
     0
281
     0
  0
CLASS
  1
AEC_DISP_REP_BDG_SECTION_SUBDIV
  2
AecDbDispRepBdgSectionSubDiv
  3
AecArchBase70|Product Desc: Autodesk Architectural Desktop 2007 |Company: Autodesk,Inc. |WEB Address: www.autodesk.com
 90
      129
 91
        1
280
     0
281
     0
  0
CLASS
  1
AEC_DISP_REP_CEILING_GRID_MODEL
  2
AecDbDispRepCeilingGridModel
  3
AecArchBase70|Product Desc: Autodesk Architectural Desktop 2007 |Company: Autodesk,Inc. |WEB Address: www.autodesk.com
 90
      129
 91
        1
280
     0
281
     0
  0
CLASS
  1
AEC_DISP_REP_BDG_SECTIONLINE_MODEL
  2
AecDbDispRepBdgSectionLineModel
  3
AecArchBase70|Product Desc: Autodesk Architectural Desktop 2007 |Company: Autodesk,Inc. |WEB Address: www.autodesk.com
 90
      129
 91
        1
280
     0
281
     0
  0
CLASS
  1
AEC_DISP_REP_COLUMN_GRID_MODEL
  2
AecDbDispRepColumnGridModel
  3
AecArchBase70|Product Desc: Autodesk Architectural Desktop 2007 |Company: Autodesk,Inc. |WEB Address: www.autodesk.com
 90
      129
 91
        1
280
     0
281
     0
  0
CLASS
  1
AEC_DISP_REP_COLUMN_GRID_RCP
  2
AecDbDispRepColumnGridRcp
  3
AecArchBase70|Product Desc: Autodesk Architectural Desktop 2007 |Company: Autodesk,Inc. |WEB Address: www.autodesk.com
 90
      129
 91
        1
280
     0
281
     0
  0
CLASS
  1
AEC_DISP_REP_BDG_SECTIONLINE_RCP
  2
AecDbDispRepBdgSectionLineRcp
  3
AecArchBase70|Product Desc: Autodesk Architectural Desktop 2007 |Company: Autodesk,Inc. |WEB Address: www.autodesk.com
 90
      129
 91
        1
280
     0
281
     0
  0
CLASS
  1
AEC_DISP_REP_BDG_ELEVLINE_MODEL
  2
AecDbDispRepBdgElevLineModel
  3
AecArchBase70|Product Desc: Autodesk Architectural Desktop 2007 |Company: Autodesk,Inc. |WEB Address: www.autodesk.com
 90
      129
 91
        1
280
     0
281
     0
  0
CLASS
  1
AEC_DISP_REP_CURTAIN_WALL_LAYOUT_MODEL
  2
AecDbDispRepCurtainWallLayoutModel
  3
AecArchBase70|Product Desc: Autodesk Architectural Desktop 2007 |Company: Autodesk,Inc. |WEB Address: www.autodesk.com
 90
      129
 91
        1
280
     0
281
     0
  0
CLASS
  1
AEC_DISP_REP_ANCHOR_BUB_TO_GRID_MODEL
  2
AecDbDispRepAnchorBubToGridMdl
  3
AecArchBase70|Product Desc: Autodesk Architectural Desktop 2007 |Company: Autodesk,Inc. |WEB Address: www.autodesk.com
 90
      129
 91
        1
280
     0
281
     0
  0
CLASS
  1
AEC_DISP_REP_DOOR_THRESHOLD_SYMBOL_PLAN
  2
AecDbDispRepDoorThresholdSymbolPlan
  3
AecArchBase70|Product Desc: Autodesk Architectural Desktop 2007 |Company: Autodesk,Inc. |WEB Address: www.autodesk.com
 90
      129
 91
        1
280
     0
281
     0
  0
CLASS
  1
AEC_DISP_PROPS_DOOR_THRESHOLD_SYMBOL_PLAN
  2
AecDbDispPropsDoorThresholdSymbolPlan
  3
AecArchBase70|Product Desc: Autodesk Architectural Desktop 2007 |Company: Autodesk,Inc. |WEB Address: www.autodesk.com
 90
      129
 91
        1
280
     0
281
     0
  0
CLASS
  1
AEC_DISP_REP_DOOR_PLAN_HEKTO
  2
AecDbDispRepDoorPlanHekto
  3
AecArchBase70|Product Desc: Autodesk Architectural Desktop 2007 |Company: Autodesk,Inc. |WEB Address: www.autodesk.com
 90
      129
 91
        1
280
     0
281
     0
  0
CLASS
  1
AEC_DISP_PROPS_DOOR_PLAN_100
  2
AecDbDispPropsDoorPlan100
  3
AecArchBase70|Product Desc: Autodesk Architectural Desktop 2007 |Company: Autodesk,Inc. |WEB Address: www.autodesk.com
 90
      129
 91
        1
280
     0
281
     0
  0
CLASS
  1
AEC_DISPREPAECDBDISPREPMASSGROUPPLAN50
  2
AecDbDispRepMassGroupPlan50
  3
AecArchBase70|Product Desc: Autodesk Architectural Desktop 2007 |Company: Autodesk,Inc. |WEB Address: www.autodesk.com
 90
      129
 91
        1
280
     0
281
     0
  0
CLASS
  1
AEC_DISPROPSMASSGROUPPLANCOMMON
  2
AecDbDispPropsMassGroupPlanCommon
  3
AecArchBase70|Product Desc: Autodesk Architectural Desktop 2007 |Company: Autodesk,Inc. |WEB Address: www.autodesk.com
 90
      129
 91
        2
280
     0
281
     0
  0
CLASS
  1
AEC_DISP_REP_MASS_GROUP_RCP
  2
AecDbDispRepMassGroupRcp
  3
AecArchBase70|Product Desc: Autodesk Architectural Desktop 2007 |Company: Autodesk,Inc. |WEB Address: www.autodesk.com
 90
      129
 91
        1
280
     0
281
     0
  0
CLASS
  1
AEC_DB_DISP_REP_DIM_GROUP_PLAN50
  2
AecDbDispRepDimGroupPlan50
  3
AecArchBase70|Product Desc: Autodesk Architectural Desktop 2007 |Company: Autodesk,Inc. |WEB Address: www.autodesk.com
 90
      129
 91
        1
280
     0
281
     0
  0
CLASS
  1
AEC_DISP_REP_DOOR_MODEL
  2
AecDbDispRepDoorModel
  3
AecArchBase70|Product Desc: Autodesk Architectural Desktop 2007 |Company: Autodesk,Inc. |WEB Address: www.autodesk.com
 90
      129
 91
        1
280
     0
281
     0
  0
CLASS
  1
AEC_DISP_PROPS_DOOR
  2
AecDbDispPropsDoor
  3
AecArchBase70|Product Desc: Autodesk Architectural Desktop 2007 |Company: Autodesk,Inc. |WEB Address: www.autodesk.com
 90
      129
 91
        4
280
     0
281
     0
  0
CLASS
  1
AEC_DISP_REP_DOOR_PLAN_50
  2
AecDbDispRepDoorPlan50
  3
AecArchBase70|Product Desc: Autodesk Architectural Desktop 2007 |Company: Autodesk,Inc. |WEB Address: www.autodesk.com
 90
      129
 91
        1
280
     0
281
     0
  0
CLASS
  1
AEC_DISP_PROPS_DOOR_PLAN_50
  2
AecDbDispPropsDoorPlan50
  3
AecArchBase70|Product Desc: Autodesk Architectural Desktop 2007 |Company: Autodesk,Inc. |WEB Address: www.autodesk.com
 90
      129
 91
        1
280
     0
281
     0
  0
CLASS
  1
AEC_DISP_REP_DOOR_THRESHOLD_PLAN
  2
AecDbDispRepDoorThresholdPlan
  3
AecArchBase70|Product Desc: Autodesk Architectural Desktop 2007 |Company: Autodesk,Inc. |WEB Address: www.autodesk.com
 90
      129
 91
        1
280
     0
281
     0
  0
CLASS
  1
AEC_DISP_PROPS_DOOR_THRESHOLD_PLAN
  2
AecDbDispPropsDoorThresholdPlan
  3
AecArchBase70|Product Desc: Autodesk Architectural Desktop 2007 |Company: Autodesk,Inc. |WEB Address: www.autodesk.com
 90
      129
 91
        1
280
     0
281
     0
  0
CLASS
  1
AEC_DISP_REP_MASKBLOCK_REF_RCP
  2
AecDbDispRepMaskBlockRefRcp
  3
AecArchBase70|Product Desc: Autodesk Architectural Desktop 2007 |Company: Autodesk,Inc. |WEB Address: www.autodesk.com
 90
      129
 91
        1
280
     0
281
     0
  0
CLASS
  1
AEC_DISP_REP_DOOR_ELEV
  2
AecDbDispRepDoorElev
  3
AecArchBase70|Product Desc: Autodesk Architectural Desktop 2007 |Company: Autodesk,Inc. |WEB Address: www.autodesk.com
 90
      129
 91
        1
280
     0
281
     0
  0
CLASS
  1
AEC_DISPREPAECDBDISPREPMASSELEMPLAN50
  2
AecDbDispRepMassElemPlan50
  3
AecArchBase70|Product Desc: Autodesk Architectural Desktop 2007 |Company: Autodesk,Inc. |WEB Address: www.autodesk.com
 90
      129
 91
        1
280
     0
281
     0
  0
CLASS
  1
AEC_DISPROPSMASSELEMPLANCOMMON
  2
AecDbDispPropsMassElemPlanCommon
  3
AecArchBase70|Product Desc: Autodesk Architectural Desktop 2007 |Company: Autodesk,Inc. |WEB Address: www.autodesk.com
 90
      129
 91
        2
280
     0
281
     0
  0
CLASS
  1
AEC_DISP_REP_DOOR_NOMINAL
  2
AecDbDispRepDoorNominal
  3
AecArchBase70|Product Desc: Autodesk Architectural Desktop 2007 |Company: Autodesk,Inc. |WEB Address: www.autodesk.com
 90
      129
 91
        1
280
     0
281
     0
  0
CLASS
  1
AEC_DISP_PROPS_DOOR_NOMINAL
  2
AecDbDispPropsDoorNominal
  3
AecArchBase70|Product Desc: Autodesk Architectural Desktop 2007 |Company: Autodesk,Inc. |WEB Address: www.autodesk.com
 90
      129
 91
        1
280
     0
281
     0
  0
CLASS
  1
AEC_DISPREPAECDBDISPREPMASSELEMPLAN100
  2
AecDbDispRepMassElemPlan100
  3
AecArchBase70|Product Desc: Autodesk Architectural Desktop 2007 |Company: Autodesk,Inc. |WEB Address: www.autodesk.com
 90
      129
 91
        1
280
     0
281
     0
  0
CLASS
  1
AEC_DISP_REP_MASS_ELEM_RCP
  2
AecDbDispRepMassElemRcp
  3
AecArchBase70|Product Desc: Autodesk Architectural Desktop 2007 |Company: Autodesk,Inc. |WEB Address: www.autodesk.com
 90
      129
 91
        1
280
     0
281
     0
  0
CLASS
  1
AEC_DISP_REP_DOOR_PLAN
  2
AecDbDispRepDoorPlan
  3
AecArchBase70|Product Desc: Autodesk Architectural Desktop 2007 |Company: Autodesk,Inc. |WEB Address: www.autodesk.com
 90
      129
 91
        1
280
     0
281
     0
  0
CLASS
  1
AEC_DISP_REP_DOOR_RCP
  2
AecDbDispRepDoorRcp
  3
AecArchBase70|Product Desc: Autodesk Architectural Desktop 2007 |Company: Autodesk,Inc. |WEB Address: www.autodesk.com
 90
      129
 91
        1
280
     0
281
     0
  0
CLASS
  1
AEC_DISPREPAECDBDISPREPMASSGROUPPLAN100
  2
AecDbDispRepMassGroupPlan100
  3
AecArchBase70|Product Desc: Autodesk Architectural Desktop 2007 |Company: Autodesk,Inc. |WEB Address: www.autodesk.com
 90
      129
 91
        1
280
     0
281
     0
  0
CLASS
  1
AEC_DB_DISP_REP_DIM_GROUP_PLAN
  2
AecDbDispRepDimGroupPlan
  3
AecArchBase70|Product Desc: Autodesk Architectural Desktop 2007 |Company: Autodesk,Inc. |WEB Address: www.autodesk.com
 90
      129
 91
        1
280
     0
281
     0
  0
CLASS
  1
AEC_DISP_REP_OPENING_MODEL
  2
AecDbDispRepOpeningModel
  3
AecArchBase70|Product Desc: Autodesk Architectural Desktop 2007 |Company: Autodesk,Inc. |WEB Address: www.autodesk.com
 90
      129
 91
        1
280
     0
281
     0
  0
CLASS
  1
AEC_DISP_PROPS_OPENING
  2
AecDbDispPropsOpening
  3
AecArchBase70|Product Desc: Autodesk Architectural Desktop 2007 |Company: Autodesk,Inc. |WEB Address: www.autodesk.com
 90
      129
 91
        2
280
     0
281
     0
  0
CLASS
  1
AEC_DISPREPAECDBDISPREPOPENINGPLAN50
  2
AecDbDispRepOpeningPlan50
  3
AecArchBase70|Product Desc: Autodesk Architectural Desktop 2007 |Company: Autodesk,Inc. |WEB Address: www.autodesk.com
 90
      129
 91
        1
280
     0
281
     0
  0
CLASS
  1
AEC_DISPROPSOPENINGPLANCOMMONHATCHED
  2
AecDbDispPropsOpeningPlanCommonHatched
  3
AecArchBase70|Product Desc: Autodesk Architectural Desktop 2007 |Company: Autodesk,Inc. |WEB Address: www.autodesk.com
 90
      129
 91
        2
280
     0
281
     0
  0
CLASS
  1
AEC_DISPREPAECDBDISPREPOPENINGPLANREFLECTED
  2
AecDbDispRepOpeningPlanReflected
  3
AecArchBase70|Product Desc: Autodesk Architectural Desktop 2007 |Company: Autodesk,Inc. |WEB Address: www.autodesk.com
 90
      129
 91
        1
280
     0
281
     0
  0
CLASS
  1
AEC_DISPROPSOPENINGPLANCOMMON
  2
AecDbDispPropsOpeningPlanCommon
  3
AecArchBase70|Product Desc: Autodesk Architectural Desktop 2007 |Company: Autodesk,Inc. |WEB Address: www.autodesk.com
 90
      129
 91
        1
280
     0
281
     0
  0
CLASS
  1
AEC_DISP_REP_OPENING
  2
AecDbDispRepOpening
  3
AecArchBase70|Product Desc: Autodesk Architectural Desktop 2007 |Company: Autodesk,Inc. |WEB Address: www.autodesk.com
 90
      129
 91
        1
280
     0
281
     0
  0
CLASS
  1
AEC_DISP_REP_MVBLOCK_REF_RCP
  2
AecDbDispRepMvBlockRefRcp
  3
AecArchBase70|Product Desc: Autodesk Architectural Desktop 2007 |Company: Autodesk,Inc. |WEB Address: www.autodesk.com
 90
      129
 91
        1
280
     0
281
     0
  0
CLASS
  1
AEC_DISPREPAECDBDISPREPOPENINGPLAN100
  2
AecDbDispRepOpeningPlan100
  3
AecArchBase70|Product Desc: Autodesk Architectural Desktop 2007 |Company: Autodesk,Inc. |WEB Address: www.autodesk.com
 90
      129
 91
        1
280
     0
281
     0
  0
CLASS
  1
AEC_DISPREPAECDBDISPREPOPENINGSILLPLAN
  2
AecDbDispRepOpeningSillPlan
  3
AecArchBase70|Product Desc: Autodesk Architectural Desktop 2007 |Company: Autodesk,Inc. |WEB Address: www.autodesk.com
 90
      129
 91
        1
280
     0
281
     0
  0
CLASS
  1
AEC_DISPROPSOPENINGSILLPLAN
  2
AecDbDispPropsOpeningSillPlan
  3
AecArchBase70|Product Desc: Autodesk Architectural Desktop 2007 |Company: Autodesk,Inc. |WEB Address: www.autodesk.com
 90
      129
 91
        1
280
     0
281
     0
  0
CLASS
  1
AEC_DISP_REP_RAILING_PLAN
  2
AecDbDispRepRailingPlan
  3
AecArchBase70|Product Desc: Autodesk Architectural Desktop 2007 |Company: Autodesk,Inc. |WEB Address: www.autodesk.com
 90
      129
 91
        1
280
     0
281
     0
  0
CLASS
  1
AEC_DISP_PROPS_RAILING_PLAN
  2
AecDbDispPropsRailingPlan
  3
AecArchBase70|Product Desc: Autodesk Architectural Desktop 2007 |Company: Autodesk,Inc. |WEB Address: www.autodesk.com
 90
      129
 91
        1
280
     0
281
     0
  0
CLASS
  1
AEC_DISP_REP_ROOF_MODEL
  2
AecDbDispRepRoofModel
  3
AecArchBase70|Product Desc: Autodesk Architectural Desktop 2007 |Company: Autodesk,Inc. |WEB Address: www.autodesk.com
 90
      129
 91
        1
280
     0
281
     0
  0
CLASS
  1
AEC_DISP_REP_ROOF_RCP
  2
AecDbDispRepRoofRcp
  3
AecArchBase70|Product Desc: Autodesk Architectural Desktop 2007 |Company: Autodesk,Inc. |WEB Address: www.autodesk.com
 90
      129
 91
        1
280
     0
281
     0
  0
CLASS
  1
AEC_DISP_REP_RAILING_PLAN_100
  2
AecDbDispRepRailingPlan100
  3
AecArchBase70|Product Desc: Autodesk Architectural Desktop 2007 |Company: Autodesk,Inc. |WEB Address: www.autodesk.com
 90
      129
 91
        1
280
     0
281
     0
  0
CLASS
  1
AEC_DISP_ROPS_RAILING_PLAN_100
  2
AecDbDispPropsRailingPlan100
  3
AecArchBase70|Product Desc: Autodesk Architectural Desktop 2007 |Company: Autodesk,Inc. |WEB Address: www.autodesk.com
 90
      129
 91
        1
280
     0
281
     0
  0
CLASS
  1
AEC_DISP_REP_RAILING_PLAN_50
  2
AecDbDispRepRailingPlan50
  3
AecArchBase70|Product Desc: Autodesk Architectural Desktop 2007 |Company: Autodesk,Inc. |WEB Address: www.autodesk.com
 90
      129
 91
        1
280
     0
281
     0
  0
CLASS
  1
AEC_DISP_ROPS_RAILING_PLAN_50
  2
AecDbDispPropsRailingPlan50
  3
AecArchBase70|Product Desc: Autodesk Architectural Desktop 2007 |Company: Autodesk,Inc. |WEB Address: www.autodesk.com
 90
      129
 91
        1
280
     0
281
     0
  0
CLASS
  1
AEC_DISP_REP_RAILING_MODEL
  2
AecDbDispRepRailingModel
  3
AecArchBase70|Product Desc: Autodesk Architectural Desktop 2007 |Company: Autodesk,Inc. |WEB Address: www.autodesk.com
 90
      129
 91
        1
280
     0
281
     0
  0
CLASS
  1
AEC_DISP_PROPS_RAILING_MODEL
  2
AecDbDispPropsRailingModel
  3
AecArchBase70|Product Desc: Autodesk Architectural Desktop 2007 |Company: Autodesk,Inc. |WEB Address: www.autodesk.com
 90
      129
 91
        1
280
     0
281
     0
  0
CLASS
  1
AEC_DISP_REP_STAIR_MODEL
  2
AecDbDispRepStairModel
  3
AecArchBase70|Product Desc: Autodesk Architectural Desktop 2007 |Company: Autodesk,Inc. |WEB Address: www.autodesk.com
 90
      129
 91
        1
280
     0
281
     0
  0
CLASS
  1
AEC_DISP_PROPS_STAIR_MODEL
  2
AecDbDispPropsStairModel
  3
AecArchBase70|Product Desc: Autodesk Architectural Desktop 2007 |Company: Autodesk,Inc. |WEB Address: www.autodesk.com
 90
      129
 91
        1
280
     0
281
     0
  0
CLASS
  1
AEC_DISP_REP_STAIR_PLAN
  2
AecDbDispRepStairPlan
  3
AecArchBase70|Product Desc: Autodesk Architectural Desktop 2007 |Company: Autodesk,Inc. |WEB Address: www.autodesk.com
 90
      129
 91
        1
280
     0
281
     0
  0
CLASS
  1
AEC_DISP_REP_SPACE_RCP
  2
AecDbDispRepSpaceRcp
  3
AecArchBase70|Product Desc: Autodesk Architectural Desktop 2007 |Company: Autodesk,Inc. |WEB Address: www.autodesk.com
 90
      129
 91
        1
280
     0
281
     0
  0
CLASS
  1
AEC_DISP_REP_SPACE_DECOMPOSED
  2
AecDbDispRepSpaceDecomposed
  3
AecArchBase70|Product Desc: Autodesk Architectural Desktop 2007 |Company: Autodesk,Inc. |WEB Address: www.autodesk.com
 90
      129
 91
        1
280
     0
281
     0
  0
CLASS
  1
AEC_DISP_PROPS_SPACE_DECOMPOSED
  2
AecDbDispPropsSpaceDecomposed
  3
AecArchBase70|Product Desc: Autodesk Architectural Desktop 2007 |Company: Autodesk,Inc. |WEB Address: www.autodesk.com
 90
      129
 91
        1
280
     0
281
     0
  0
CLASS
  1
AEC_DISP_REP_ROOFSLAB_MODEL
  2
AecDbDispRepRoofSlabModel
  3
AecArchBase70|Product Desc: Autodesk Architectural Desktop 2007 |Company: Autodesk,Inc. |WEB Address: www.autodesk.com
 90
      129
 91
        1
280
     0
281
     0
  0
CLASS
  1
AEC_DISP_PROPS_ROOFSLAB
  2
AecDbDispPropsRoofSlab
  3
AecArchBase70|Product Desc: Autodesk Architectural Desktop 2007 |Company: Autodesk,Inc. |WEB Address: www.autodesk.com
 90
      129
 91
        1
280
     0
281
     0
  0
CLASS
  1
AEC_DISP_REP_STAIR_PLAN_100
  2
AecDbDispRepStairPlan100
  3
AecArchBase70|Product Desc: Autodesk Architectural Desktop 2007 |Company: Autodesk,Inc. |WEB Address: www.autodesk.com
 90
      129
 91
        1
280
     0
281
     0
  0
CLASS
  1
AEC_DISP_ROPS_STAIR_PLAN_100
  2
AecDbDispPropsStairPlan100
  3
AecArchBase70|Product Desc: Autodesk Architectural Desktop 2007 |Company: Autodesk,Inc. |WEB Address: www.autodesk.com
 90
      129
 91
        1
280
     0
281
     0
  0
CLASS
  1
AEC_DISP_REP_SPACE_MODEL
  2
AecDbDispRepSpaceModel
  3
AecArchBase70|Product Desc: Autodesk Architectural Desktop 2007 |Company: Autodesk,Inc. |WEB Address: www.autodesk.com
 90
      129
 91
        1
280
     0
281
     0
  0
CLASS
  1
AEC_DISP_PROPS_SPACE_MODEL
  2
AecDbDispPropsSpaceModel
  3
AecArchBase70|Product Desc: Autodesk Architectural Desktop 2007 |Company: Autodesk,Inc. |WEB Address: www.autodesk.com
 90
      129
 91
        1
280
     0
281
     0
  0
CLASS
  1
AEC_DISP_REP_SPACE_VOLUME
  2
AecDbDispRepSpaceVolume
  3
AecArchBase70|Product Desc: Autodesk Architectural Desktop 2007 |Company: Autodesk,Inc. |WEB Address: www.autodesk.com
 90
      129
 91
        1
280
     0
281
     0
  0
CLASS
  1
AEC_DISP_REP_STAIR_PLAN_50
  2
AecDbDispRepStairPlan50
  3
AecArchBase70|Product Desc: Autodesk Architectural Desktop 2007 |Company: Autodesk,Inc. |WEB Address: www.autodesk.com
 90
      129
 91
        1
280
     0
281
     0
  0
CLASS
  1
AEC_DISP_ROPS_STAIR_PLAN_50
  2
AecDbDispPropsStairPlan50
  3
AecArchBase70|Product Desc: Autodesk Architectural Desktop 2007 |Company: Autodesk,Inc. |WEB Address: www.autodesk.com
 90
      129
 91
        1
280
     0
281
     0
  0
CLASS
  1
AEC_DISP_REP_SLAB_MODEL
  2
AecDbDispRepSlabModel
  3
AecArchBase70|Product Desc: Autodesk Architectural Desktop 2007 |Company: Autodesk,Inc. |WEB Address: www.autodesk.com
 90
      129
 91
        1
280
     0
281
     0
  0
CLASS
  1
AEC_DISP_PROPS_SLAB
  2
AecDbDispPropsSlab
  3
AecArchBase70|Product Desc: Autodesk Architectural Desktop 2007 |Company: Autodesk,Inc. |WEB Address: www.autodesk.com
 90
      129
 91
        1
280
     0
281
     0
  0
CLASS
  1
AECS_DISP_REP_MEMBER_MODEL_DETAIL
  2
AecsDbDispRepMemberModelDetail
  3
AecArchBase70|Product Desc: Autodesk Architectural Desktop 2007 |Company: Autodesk,Inc. |WEB Address: www.autodesk.com
 90
      129
 91
        1
280
     0
281
     0
  0
CLASS
  1
AECS_DISP_PROPS_MEMBER
  2
AecsDbDispPropsMember
  3
AecArchBase70|Product Desc: Autodesk Architectural Desktop 2007 |Company: Autodesk,Inc. |WEB Address: www.autodesk.com
 90
      129
 91
        2
280
     0
281
     0
  0
CLASS
  1
AECS_DISP_REP_MEMBER_LOGICAL
  2
AecsDbDispRepMemberLogical
  3
AecArchBase70|Product Desc: Autodesk Architectural Desktop 2007 |Company: Autodesk,Inc. |WEB Address: www.autodesk.com
 90
      129
 91
        1
280
     0
281
     0
  0
CLASS
  1
AECS_DISP_PROPS_MEMBER_LOGICAL
  2
AecsDbDispPropsMemberLogical
  3
AecArchBase70|Product Desc: Autodesk Architectural Desktop 2007 |Company: Autodesk,Inc. |WEB Address: www.autodesk.com
 90
      129
 91
        1
280
     0
281
     0
  0
CLASS
  1
AECS_DISP_REP_MEMBER_ELEVATION_DETAIL
  2
AecsDbDispRepMemberElevationDetail
  3
AecArchBase70|Product Desc: Autodesk Architectural Desktop 2007 |Company: Autodesk,Inc. |WEB Address: www.autodesk.com
 90
      129
 91
        1
280
     0
281
     0
  0
CLASS
  1
AECS_DISP_PROPS_MEMBER_PROJECTED
  2
AecsDbDispPropsMemberProjected
  3
AecArchBase70|Product Desc: Autodesk Architectural Desktop 2007 |Company: Autodesk,Inc. |WEB Address: www.autodesk.com
 90
      129
 91
        2
280
     0
281
     0
  0
CLASS
  1
AECS_DISP_REP_MEMBER_MODEL_DESIGN
  2
AecsDbDispRepMemberModelDesign
  3
AecArchBase70|Product Desc: Autodesk Architectural Desktop 2007 |Company: Autodesk,Inc. |WEB Address: www.autodesk.com
 90
      129
 91
        1
280
     0
281
     0
  0
CLASS
  1
AECS_DISP_REP_MEMBER_ELEVATION_DESIGN
  2
AecsDbDispRepMemberElevationDesign
  3
AecArchBase70|Product Desc: Autodesk Architectural Desktop 2007 |Company: Autodesk,Inc. |WEB Address: www.autodesk.com
 90
      129
 91
        1
280
     0
281
     0
  0
CLASS
  1
AECS_DISP_REP_MEMBER_PLAN_DESIGN
  2
AecsDbDispRepMemberPlanDesign
  3
AecArchBase70|Product Desc: Autodesk Architectural Desktop 2007 |Company: Autodesk,Inc. |WEB Address: www.autodesk.com
 90
      129
 91
        1
280
     0
281
     0
  0
CLASS
  1
AECS_DISP_PROPS_MEMBER_PLAN
  2
AecsDbDispPropsMemberPlan
  3
AecArchBase70|Product Desc: Autodesk Architectural Desktop 2007 |Company: Autodesk,Inc. |WEB Address: www.autodesk.com
 90
      129
 91
        2
280
     0
281
     0
  0
CLASS
  1
AECS_DISP_REP_MEMBER_PLAN_DETAIL
  2
AecsDbDispRepMemberPlanDetail
  3
AecArchBase70|Product Desc: Autodesk Architectural Desktop 2007 |Company: Autodesk,Inc. |WEB Address: www.autodesk.com
 90
      129
 91
        1
280
     0
281
     0
  0
CLASS
  1
AECS_DISP_REP_MEMBER_PLAN_SKETCH
  2
AecsDbDispRepMemberPlanSketch
  3
AecArchBase70|Product Desc: Autodesk Architectural Desktop 2007 |Company: Autodesk,Inc. |WEB Address: www.autodesk.com
 90
      129
 91
        1
280
     0
281
     0
  0
CLASS
  1
AECS_DISP_PROPS_MEMBER_PLAN_SKETCH
  2
AecsDbDispPropsMemberPlanSketch
  3
AecArchBase70|Product Desc: Autodesk Architectural Desktop 2007 |Company: Autodesk,Inc. |WEB Address: www.autodesk.com
 90
      129
 91
        1
280
     0
281
     0
  0
CLASS
  1
AEC_DISP_REP_SCHEDULE_TABLE
  2
AecDbDispRepScheduleTable
  3
AecSchedule70|Product Desc: Autodesk Architectural Desktop 2007 |Company: Autodesk,Inc. |WEB Address: www.autodesk.com
 90
      129
 91
        1
280
     0
281
     0
  0
CLASS
  1
AEC_DISP_PROPS_SCHEDULE_TABLE
  2
AecDbDispPropsScheduleTable
  3
AecSchedule70|Product Desc: Autodesk Architectural Desktop 2007 |Company: Autodesk,Inc. |WEB Address: www.autodesk.com
 90
      129
 91
        1
280
     0
281
     0
  0
CLASS
  1
AEC_DISP_REP_SET
  2
AecDbDispRepSet
  3
AecBase70|Product Desc: Autodesk Architectural Desktop 2007 |Company: Autodesk,Inc. |WEB Address: www.autodesk.com
 90
      129
 91
       10
280
     0
281
     0
  0
CLASS
  1
AEC_DISP_REP_CONFIG
  2
AecDbDispRepConfig
  3
AecBase70|Product Desc: Autodesk Architectural Desktop 2007 |Company: Autodesk,Inc. |WEB Address: www.autodesk.com
 90
      129
 91
        2
280
     0
281
     0
  0
CLASS
  1
AEC_CLEANUP_GROUP_DEF
  2
AecDbCleanupGroupDef
  3
AecArchBase70|Product Desc: Autodesk Architectural Desktop 2007 |Company: Autodesk,Inc. |WEB Address: www.autodesk.com
 90
      129
 91
        1
280
     0
281
     0
  0
CLASS
  1
AEC_LAYERKEY_STYLE
  2
AecDbLayerKeyStyle
  3
AecBase70|Product Desc: Autodesk Architectural Desktop 2007 |Company: Autodesk,Inc. |WEB Address: www.autodesk.com
 90
      129
 91
        1
280
     0
281
     0
  0
CLASS
  1
AEC_VARS_ARCHBASE
  2
AecDbVarsArchBase
  3
AecArchBase70|Product Desc: Autodesk Architectural Desktop 2007 |Company: Autodesk,Inc. |WEB Address: www.autodesk.com
 90
      129
 91
        1
280
     0
281
     0
  0
CLASS
  1
AEC_VARS_STRUCTUREBASE
  2
AecsDbVarsStructureBase
  3
AecArchBase70|Product Desc: Autodesk Architectural Desktop 2007 |Company: Autodesk,Inc. |WEB Address: www.autodesk.com
 90
      129
 91
        1
280
     0
281
     0
  0
CLASS
  1
AEC_VARS_MUNICH
  2
AecDbVarsMunich
  3
AecArchBase70|Product Desc: Autodesk Architectural Desktop 2007 |Company: Autodesk,Inc. |WEB Address: www.autodesk.com
 90
      129
 91
        1
280
     0
281
     0
  0
CLASS
  1
BINRECORD
  2
AcAecBinRecord
  3
AecBase70|Product Desc: Autodesk Architectural Desktop 2007 |Company: Autodesk,Inc. |WEB Address: www.autodesk.com
 90
      129
 91
        1
280
     0
281
     0
  0
CLASS
  1
IMAGE
  2
AcDbRasterImage
  3
ISM
 90
     2175
 91
        0
280
     0
281
     1
  0
CLASS
  1
IMAGEDEF_REACTOR
  2
AcDbRasterImageDefReactor
  3
ISM
 90
        1
 91
        0
280
     0
281
     0
  0
CLASS
  1
IMAGEDEF
  2
AcDbRasterImageDef
  3
ISM
 90
        0
 91
        0
280
     0
281
     0
  0
CLASS
  1
RAPIDRTRENDERSETTINGS
  2
AcDbRapidRTRenderSettings
  3
ObjectDBX Classes
 90
     1024
 91
        2
280
     0
281
     0
  0
CLASS
  1
MENTALRAYRENDERSETTINGS
  2
AcDbMentalRayRenderSettings
  3
SCENEOE
 90
     1024
 91
        1
280
     0
281
     0
  0
ENDSEC
  0
SECTION
  2
TABLES
  0
TABLE
  2
VPORT
  5
8
102
{ACAD_XDICTIONARY
360
B51
102
}
330
0
100
AcDbSymbolTable
 70
     1
  0
VPORT
  5
DAB
330
8
100
AcDbSymbolTableRecord
100
AcDbViewportTableRecord
  2
*Active
 70
     0
 10
0.0
 20
0.0
 11
1.0
 21
1.0
 12
11.52845424913892
 22
-10.93916603357425
 13
0.0
 23
0.0
 14
0.5
 24
0.5
 15
0.5
 25
0.5
 16
0.0
 26
0.0
 36
1.0
 17
0.0
 27
0.0
 37
0.0
 40
49.09047125324111
 41
2.068714632174616
 42
50.0
 43
0.0
 44
0.0
 50
0.0
 51
0.0
 71
     0
 72
  1000
 73
     1
 74
     3
 75
     0
 76
     1
 77
     0
 78
     1
281
     0
 65
     1
110
0.0
120
0.0
130
0.0
111
1.0
121
0.0
131
0.0
112
0.0
122
1.0
132
0.0
 79
     0
146
0.0
348
9F
 60
     2
 61
     5
292
     1
282
     1
141
0.0
142
0.0
 63
   250
421
  3355443
1001
ACAD_NAV_VCDISPLAY
1070
     3
  0
ENDTAB
  0
TABLE
  2
LTYPE
  5
5
330
0
100
AcDbSymbolTable
 70
     2
  0
LTYPE
  5
14
330
5
100
AcDbSymbolTableRecord
100
AcDbLinetypeTableRecord
  2
ByBlock
 70
     0
  3

 72
    65
 73
     0
 40
0.0
  0
LTYPE
  5
15
330
5
100
AcDbSymbolTableRecord
100
AcDbLinetypeTableRecord
  2
ByLayer
 70
     0
  3

 72
    65
 73
     0
 40
0.0
  0
LTYPE
  5
16
330
5
100
AcDbSymbolTableRecord
100
AcDbLinetypeTableRecord
  2
Continuous
 70
     0
  3
Solid line
 72
    65
 73
     0
 40
0.0
  0
LTYPE
  5
A610A
330
5
100
AcDbSymbolTableRecord
100
AcDbLinetypeTableRecord
  2
DASHED
 70
     0
  3
Dashed __ __ __ __ __ __ __ __ __ __ __ __ __ _
 72
    65
 73
     2
 40
0.75
 49
0.5
 74
     0
 49
-0.25
 74
     0
  0
ENDTAB
  0
TABLE
  2
LAYER
  5
2
102
{ACAD_XDICTIONARY
360
E7
102
}
330
0
100
AcDbSymbolTable
 70
    32
  0
LAYER
  5
10
102
{ACAD_XDICTIONARY
360
A6C
102
}
330
2
100
AcDbSymbolTableRecord
100
AcDbLayerTableRecord
  2
0
 70
     0
 62
     7
  6
Continuous
370
    -3
390
F
347
98
348
0
  0
LAYER
  5
9D0
330
2
100
AcDbSymbolTableRecord
100
AcDbLayerTableRecord
  2
Defpoints
 70
     0
 62
     7
  6
Continuous
290
     0
370
    -3
390
F
347
98
348
0
  0
LAYER
  5
9583E
330
2
100
AcDbSymbolTableRecord
100
AcDbLayerTableRecord
  2
HI Fitting
 70
     0
 62
     3
  6
Continuous
370
    -3
390
F
347
98
348
0
1001
AcAecLayerStandard
1000

1000

1001
AcCmTransparency
1071
        0
  0
LAYER
  5
9583F
330
2
100
AcDbSymbolTableRecord
100
AcDbLayerTableRecord
  2
HI Lateral
 70
     0
 62
     2
  6
Continuous
370
    -3
390
F
347
98
348
0
1001
AcAecLayerStandard
1000

1000

1001
AcCmTransparency
1071
        0
  0
LAYER
  5
9588B
330
2
100
AcDbSymbolTableRecord
100
AcDbLayerTableRecord
  2
HI Text
 70
     0
 62
     2
  6
Continuous
370
    -3
390
F
347
98
348
0
1001
AcAecLayerStandard
1000

1000

1001
AcCmTransparency
1071
        0
  0
LAYER
  5
9C87A
330
2
100
AcDbSymbolTableRecord
100
AcDbLayerTableRecord
  2
HI HATCH FILL
 70
     0
 62
     9
  6
Continuous
370
    -3
390
F
347
98
348
0
1001
AcAecLayerStandard
1000

1000

1001
AcCmTransparency
1071
        0
  0
LAYER
  5
9CBA3
330
2
100
AcDbSymbolTableRecord
100
AcDbLayerTableRecord
  2
HI Product Outline
 70
     0
 62
     5
  6
Continuous
370
    -3
390
F
347
98
348
0
1001
AcAecLayerStandard
1000

1000

1001
AcCmTransparency
1071
        0
  0
LAYER
  5
9CBA6
330
2
100
AcDbSymbolTableRecord
100
AcDbLayerTableRecord
  2
HI Lateral Detail
 70
     0
 62
   249
  6
Continuous
370
    -3
390
F
347
98
348
0
1001
AcAecLayerStandard
1000

1000

1001
AcCmTransparency
1071
        0
  0
LAYER
  5
9CBA7
330
2
100
AcDbSymbolTableRecord
100
AcDbLayerTableRecord
  2
HI Deatil 1
 70
     0
 62
     2
  6
Continuous
370
    -3
390
F
347
98
348
0
1001
AcAecLayerStandard
1000

1000

1001
AcCmTransparency
1071
        0
  0
LAYER
  5
9CBA8
330
2
100
AcDbSymbolTableRecord
100
AcDbLayerTableRecord
  2
HI Deatil 2
 70
     0
 62
     1
  6
Continuous
370
    -3
390
F
347
98
348
0
1001
AcAecLayerStandard
1000

1000

1001
AcCmTransparency
1071
        0
  0
LAYER
  5
9CBA9
330
2
100
AcDbSymbolTableRecord
100
AcDbLayerTableRecord
  2
HI Detail 3
 70
     0
 62
   249
  6
Continuous
370
    -3
390
F
347
98
348
0
1001
AcAecLayerStandard
1000

1000

1001
AcCmTransparency
1071
        0
  0
LAYER
  5
9CBAB
330
2
100
AcDbSymbolTableRecord
100
AcDbLayerTableRecord
  2
HI Dimensions
 70
     0
 62
     1
  6
Continuous
370
    -3
390
F
347
98
348
0
1001
AcAecLayerStandard
1000

1000

1001
AcCmTransparency
1071
        0
  0
LAYER
  5
9EC2B
102
{ACAD_XDICTIONARY
360
9EC2C
102
}
330
2
100
AcDbSymbolTableRecord
100
AcDbLayerTableRecord
  2
L-dtl-htch
 70
     0
 62
   212
  6
Continuous
370
     0
390
F
347
98
348
0
1001
AcAecLayerStandard
1000

1000

  0
LAYER
  5
A0E56
330
2
100
AcDbSymbolTableRecord
100
AcDbLayerTableRecord
  2
HI Building Wall
 70
     0
 62
     6
  6
Continuous
370
    25
390
F
347
98
348
0
1001
AcAecLayerStandard
1000

1000

1001
AcCmTransparency
1071
        0
  0
LAYER
  5
A1F94
330
2
100
AcDbSymbolTableRecord
100
AcDbLayerTableRecord
  2
HI Text2
 70
     0
 62
     1
  6
Continuous
370
    -3
390
F
347
98
348
0
1001
AcAecLayerStandard
1000

1000

1001
AcCmTransparency
1071
        0
  0
LAYER
  5
A21B7
330
2
100
AcDbSymbolTableRecord
100
AcDbLayerTableRecord
  2
HI No Print
 70
     0
 62
     7
  6
Continuous
290
     0
370
    -3
390
F
347
98
348
0
1001
AcAecLayerStandard
1000

1000

1001
AcCmTransparency
1071
        0
  0
LAYER
  5
A610B
330
2
100
AcDbSymbolTableRecord
100
AcDbLayerTableRecord
  2
D-OBJECT
 70
     0
 62
     2
  6
Continuous
370
    -3
390
F
347
98
348
0
1001
AcAecLayerStandard
1000

1000

1001
AcCmTransparency
1071
        0
  0
LAYER
  5
A610C
330
2
100
AcDbSymbolTableRecord
100
AcDbLayerTableRecord
  2
D-OBJECT LIGHT
 70
     0
 62
     4
  6
Continuous
370
    -3
390
F
347
98
348
0
1001
AcAecLayerStandard
1000

1000

1001
AcCmTransparency
1071
        0
  0
LAYER
  5
A610D
330
2
100
AcDbSymbolTableRecord
100
AcDbLayerTableRecord
  2
D-OBJECT HEAVY
 70
     0
 62
     3
  6
Continuous
370
    -3
390
F
347
98
348
0
1001
AcAecLayerStandard
1000

1000

1001
AcCmTransparency
1071
        0
  0
LAYER
  5
A610E
330
2
100
AcDbSymbolTableRecord
100
AcDbLayerTableRecord
  2
D-TEXT
 70
     0
 62
     2
  6
Continuous
370
    -3
390
F
347
98
348
0
1001
AcAecLayerStandard
1000

1000

1001
AcCmTransparency
1071
        0
  0
LAYER
  5
A610F
330
2
100
AcDbSymbolTableRecord
100
AcDbLayerTableRecord
  2
D-LEADER
 70
     0
 62
     2
  6
Continuous
370
    -3
390
F
347
98
348
0
1001
AcAecLayerStandard
1000

1000

1001
AcCmTransparency
1071
        0
  0
LAYER
  5
A6110
330
2
100
AcDbSymbolTableRecord
100
AcDbLayerTableRecord
  2
D-HATCH
 70
     0
 62
     1
  6
Continuous
370
    -3
390
F
347
98
348
0
1001
AcAecLayerStandard
1000

1000

1001
AcCmTransparency
1071
        0
  0
LAYER
  5
A6111
330
2
100
AcDbSymbolTableRecord
100
AcDbLayerTableRecord
  2
D-DASHED LIGHT
 70
     0
 62
     4
  6
DASHED
370
    -3
390
F
347
98
348
0
1001
AcAecLayerStandard
1000

1000

1001
AcCmTransparency
1071
        0
  0
LAYER
  5
A6112
330
2
100
AcDbSymbolTableRecord
100
AcDbLayerTableRecord
  2
D-HATCH SCREENED
 70
     0
 62
     8
  6
Continuous
370
    -3
390
F
347
98
348
0
1001
AcAecLayerStandard
1000

1000

1001
AcCmTransparency
1071
        0
  0
LAYER
  5
ACA98
330
2
100
AcDbSymbolTableRecord
100
AcDbLayerTableRecord
  2
Hunter Product Heavy
 70
     0
 62
     1
  6
Continuous
370
    50
390
F
347
98
348
0
1001
AcAecLayerStandard
1000

1000

  0
LAYER
  5
ACA99
330
2
100
AcDbSymbolTableRecord
100
AcDbLayerTableRecord
  2
Hunter Product Light
 70
     0
 62
   254
  6
Continuous
370
    -3
390
F
347
98
348
0
1001
AcAecLayerStandard
1000

1000

  0
LAYER
  5
ACA9A
330
2
100
AcDbSymbolTableRecord
100
AcDbLayerTableRecord
  2
Hunter Hidden
 70
     0
 62
     6
  6
Continuous
290
     0
370
    -3
390
F
347
98
348
0
1001
AcAecLayerStandard
1000

1000

  0
LAYER
  5
ACE55
330
2
100
AcDbSymbolTableRecord
100
AcDbLayerTableRecord
  2
Hunter Product Medium
 70
     0
 62
     2
  6
Continuous
370
    -3
390
F
347
98
348
0
1001
AcAecLayerStandard
1000

1000

  0
LAYER
  5
ACE56
330
2
100
AcDbSymbolTableRecord
100
AcDbLayerTableRecord
  2
Hunter Finished Grade
 70
     0
 62
     3
  6
Continuous
370
    50
390
F
347
98
348
0
1001
AcAecLayerStandard
1000

1000

  0
LAYER
  5
ACE57
330
2
100
AcDbSymbolTableRecord
100
AcDbLayerTableRecord
  2
Hunter Hatch Patterns
 70
     0
 62
   254
  6
Continuous
370
    -3
390
F
347
98
348
0
1001
AcAecLayerStandard
1000

1000

  0
LAYER
  5
ACE58
330
2
100
AcDbSymbolTableRecord
100
AcDbLayerTableRecord
  2
Hunter Leaders
 70
     0
 62
     3
  6
Continuous
370
    -3
390
F
347
98
348
0
1001
AcAecLayerStandard
1000

1000

  0
LAYER
  5
ACE59
330
2
100
AcDbSymbolTableRecord
100
AcDbLayerTableRecord
  2
Hunter Detail Title
 70
     0
 62
     5
  6
Continuous
370
    -3
390
F
347
98
348
0
1001
AcAecLayerStandard
1000

1000

  0
ENDTAB
  0
TABLE
  2
STYLE
  5
3
330
0
100
AcDbSymbolTable
 70
     5
  0
STYLE
  5
11
330
3
100
AcDbSymbolTableRecord
100
AcDbTextStyleTableRecord
  2
Standard
 70
     0
 40
0.0
 41
1.0
 50
0.0
 71
     0
 42
12.10402048440558
  3
arial.ttf
  4

1001
ACAD
1000
Arial
1071
       34
  0
STYLE
  5
1BACD
330
3
100
AcDbSymbolTableRecord
100
AcDbTextStyleTableRecord
  2
DIMS
 70
     0
 40
0.0
 41
1.0
 50
0.0
 71
     0
 42
0.2
  3
arial.ttf
  4

1001
ACAD
1000
Arial
1071
       34
  0
STYLE
  5
5DCD6
330
3
100
AcDbSymbolTableRecord
100
AcDbTextStyleTableRecord
  2
Hunter
 70
     0
 40
0.0
 41
0.7
 50
0.0
 71
     0
 42
0.09375
  3
romans.shx
  4

  0
STYLE
  5
78DB5
330
3
100
AcDbSymbolTableRecord
100
AcDbTextStyleTableRecord
  2
STYLE1
 70
     0
 40
0.0
 41
1.0
 50
0.0
 71
     0
 42
0.2
  3
txt
  4

  0
STYLE
  5
A6113
330
3
100
AcDbSymbolTableRecord
100
AcDbTextStyleTableRecord
  2
romand
 70
     0
 40
0.25
 41
1.0
 50
0.0
 71
     0
 42
0.25
  3
romand.shx
  4

  0
ENDTAB
  0
TABLE
  2
VIEW
  5
6
330
0
100
AcDbSymbolTable
 70
     0
  0
ENDTAB
  0
TABLE
  2
UCS
  5
7
330
0
100
AcDbSymbolTable
 70
     0
  0
ENDTAB
  0
TABLE
  2
APPID
  5
9
330
0
100
AcDbSymbolTable
 70
    17
  0
APPID
  5
12
330
9
100
AcDbSymbolTableRecord
100
AcDbRegAppTableRecord
  2
ACAD
 70
     0
  0
APPID
  5
BE
330
9
100
AcDbSymbolTableRecord
100
AcDbRegAppTableRecord
  2
ACAD_PSEXT
 70
     0
  0
APPID
  5
DBF
330
9
100
AcDbSymbolTableRecord
100
AcDbRegAppTableRecord
  2
AcAecLayerStandard
 70
     0
  0
APPID
  5
FEF2
330
9
100
AcDbSymbolTableRecord
100
AcDbRegAppTableRecord
  2
ACAD_DSTYLE_DIMJOGGED_JOGANGLE_SYMBOL
 70
     0
  0
APPID
  5
1BACF
330
9
100
AcDbSymbolTableRecord
100
AcDbRegAppTableRecord
  2
ACAD_DSTYLE_DIMJAG
 70
     0
  0
APPID
  5
1BAD0
330
9
100
AcDbSymbolTableRecord
100
AcDbRegAppTableRecord
  2
ACAD_DSTYLE_DIMTALN
 70
     0
  0
APPID
  5
5B55B
330
9
100
AcDbSymbolTableRecord
100
AcDbRegAppTableRecord
  2
ACAD_NAV_VCDISPLAY
 70
     0
  0
APPID
  5
5C537
330
9
100
AcDbSymbolTableRecord
100
AcDbRegAppTableRecord
  2
AEC_OBJVER_INFO
 70
     0
  0
APPID
  5
95767
330
9
100
AcDbSymbolTableRecord
100
AcDbRegAppTableRecord
  2
AcCmTransparency
 70
     0
  0
APPID
  5
9C807
330
9
100
AcDbSymbolTableRecord
100
AcDbRegAppTableRecord
  2
AEC_XDATA_BOUND_SPACE
 70
     0
  0
APPID
  5
9C925
330
9
100
AcDbSymbolTableRecord
100
AcDbRegAppTableRecord
  2
GradientColor1ACI
 70
     0
  0
APPID
  5
9C926
330
9
100
AcDbSymbolTableRecord
100
AcDbRegAppTableRecord
  2
GradientColor2ACI
 70
     0
  0
APPID
  5
A0A0A
330
9
100
AcDbSymbolTableRecord
100
AcDbRegAppTableRecord
  2
ACAD_MLEADERVER
 70
     0
  0
APPID
  5
A0A2C
330
9
100
AcDbSymbolTableRecord
100
AcDbRegAppTableRecord
  2
ManulPointsAssociative
 70
     0
  0
APPID
  5
A0A2D
330
9
100
AcDbSymbolTableRecord
100
AcDbRegAppTableRecord
  2
LandFX
 70
     0
  0
APPID
  5
A0DDB
330
9
100
AcDbSymbolTableRecord
100
AcDbRegAppTableRecord
  2
ACAD_EXEMPT_FROM_CAD_STANDARDS
 70
     0
  0
APPID
  5
A3AA6
330
9
100
AcDbSymbolTableRecord
100
AcDbRegAppTableRecord
  2
ACAD_DSTYLE_DIMRADIAL_EXTENSION
 70
     0
  0
ENDTAB
  0
TABLE
  2
DIMSTYLE
  5
A
330
0
100
AcDbSymbolTable
 70
     9
100
AcDbDimStyleTable
 71
     3
340
9EC41
340
1BACE
340
27
  0
DIMSTYLE
105
27
330
A
100
AcDbSymbolTableRecord
100
AcDbDimStyleTableRecord
  2
Standard
 70
     0
340
11
  0
DIMSTYLE
105
1BACE
330
A
100
AcDbSymbolTableRecord
100
AcDbDimStyleTableRecord
  2
LandMatters
 70
     0
 41
0.125
 49
0.18
 73
     0
 74
     0
140
0.125
141
0.0750000000000001
147
0.095
174
     1
176
     2
177
     2
178
     2
271
     3
272
     3
277
     4
279
     1
289
     1
340
1BACD
342
1BAAE
1001
ACAD_DSTYLE_DIMJOGGED_JOGANGLE_SYMBOL
1070
   384
1040
0.7853981633974483
1001
ACAD_DSTYLE_DIMJAG
1070
   388
1040
1.5
1001
ACAD_DSTYLE_DIMTALN
1070
   392
1070
     0
  0
DIMSTYLE
105
9EC41
330
A
100
AcDbSymbolTableRecord
100
AcDbDimStyleTableRecord
  2
HUNTER-1.5INCH
 70
     0
 41
1.0
 42
0.05
 43
0.505
 44
0.675
 46
0.675
 73
     0
 74
     0
 78
     3
140
1.0
144
0.9999999999999998
147
0.04
172
     1
176
   256
177
   256
178
   256
271
     0
272
     0
277
     4
279
     2
289
     1
340
5DCD6
341
9EC11
342
1BAAE
371
    -1
  0
DIMSTYLE
105
ACA9B
330
A
100
AcDbSymbolTableRecord
100
AcDbDimStyleTableRecord
  2
HUNTER-3INCH
 70
     0
 41
0.375
 42
0.05
 43
0.505
 44
0.3
 46
0.3
 73
     0
 74
     0
 78
     3
140
0.5
147
0.04
172
     1
176
   256
177
   256
178
   256
271
     2
272
     2
277
     4
279
     2
289
     1
340
5DCD6
341
9EC11
342
1BAAE
371
    -1
  0
DIMSTYLE
105
ACA9C
330
A
100
AcDbSymbolTableRecord
100
AcDbDimStyleTableRecord
  2
LandFX-QLEADER-SDIM1
 70
     0
 41
0.3
140
0.2
340
11
  0
DIMSTYLE
105
ACA9D
330
A
100
AcDbSymbolTableRecord
100
AcDbDimStyleTableRecord
  2
LandFX-QLEADER-SDIM10
 70
     0
 40
10.0
140
0.02
340
11
  0
DIMSTYLE
105
ACA9E
330
A
100
AcDbSymbolTableRecord
100
AcDbDimStyleTableRecord
  2
LandFX-QLEADER-SDIM5
 70
     0
 40
5.0
140
0.04
340
11
  0
DIMSTYLE
105
ACA9F
330
A
100
AcDbSymbolTableRecord
100
AcDbDimStyleTableRecord
  2
LandFX-QLEADER-SDIM2
 70
     0
 40
2.0
140
0.1
340
11
  0
DIMSTYLE
105
ACAA0
330
A
100
AcDbSymbolTableRecord
100
AcDbDimStyleTableRecord
  2
LandFX-QLEADER-SDIM3
 70
     0
 40
3.0
140
0.0666666666666667
340
11
  0
ENDTAB
  0
TABLE
  2
BLOCK_RECORD
  5
1
330
0
100
AcDbSymbolTable
 70
     5
  0
BLOCK_RECORD
  5
1F
102
{ACAD_XDICTIONARY
360
A62
102
}
330
1
100
AcDbSymbolTableRecord
100
AcDbBlockTableRecord
  2
*Model_Space
340
22
 70
     0
280
     1
281
     0
  0
BLOCK_RECORD
  5
A21B8
330
1
100
AcDbSymbolTableRecord
100
AcDbBlockTableRecord
  2
*Paper_Space
340
A21B9
 70
     0
280
     1
281
     0
  0
BLOCK_RECORD
  5
1BAAE
330
1
100
AcDbSymbolTableRecord
100
AcDbBlockTableRecord
  2
_ARCHTICK
340
0
 70
     0
280
     1
281
     0
  0
BLOCK_RECORD
  5
9EC11
330
1
100
AcDbSymbolTableRecord
100
AcDbBlockTableRecord
  2
_Open90
340
0
 70
     0
280
     1
281
     0
  0
BLOCK_RECORD
  5
A024C
330
1
100
AcDbSymbolTableRecord
100
AcDbBlockTableRecord
  2
_Integral
340
0
 70
     0
280
     1
281
     0
  0
BLOCK_RECORD
  5
A21A0
330
1
100
AcDbSymbolTableRecord
100
AcDbBlockTableRecord
  2
*Paper_Space3
340
A21A1
 70
     0
280
     1
281
     0
  0
BLOCK_RECORD
  5
A3B49
330
1
100
AcDbSymbolTableRecord
100
AcDbBlockTableRecord
  2
_FILLED
340
0
 70
     0
280
     1
281
     0
  0
ENDTAB
  0
ENDSEC
  0
SECTION
  2
BLOCKS
  0
BLOCK
  5
20
330
1F
100
AcDbEntity
  8
0
100
AcDbBlockBegin
  2
*Model_Space
 70
     0
 10
0.0
 20
0.0
 30
0.0
  3
*Model_Space
  1

  0
ENDBLK
  5
21
330
1F
100
AcDbEntity
  8
0
100
AcDbBlockEnd
  0
BLOCK
  5
A21BA
330
A21B8
100
AcDbEntity
 67
     1
  8
0
100
AcDbBlockBegin
  2
*Paper_Space
 70
     0
 10
0.0
 20
0.0
 30
0.0
  3
*Paper_Space
  1

  0
ENDBLK
  5
A21BB
330
A21B8
100
AcDbEntity
 67
     1
  8
0
100
AcDbBlockEnd
  0
BLOCK
  5
1BAAF
330
1BAAE
100
AcDbEntity
  8
0
100
AcDbBlockBegin
  2
_ARCHTICK
 70
     0
 10
0.0
 20
0.0
 30
0.0
  3
_ARCHTICK
  1

  0
LWPOLYLINE
  5
1BAB0
330
1BAAE
100
AcDbEntity
  8
0
  6
ByBlock
 62
     0
100
AcDbPolyline
 90
        2
 70
     0
 43
0.15
 10
-0.5
 20
-0.5
 10
0.5
 20
0.5
  0
ENDBLK
  5
1BAB1
330
1BAAE
100
AcDbEntity
  8
0
100
AcDbBlockEnd
  0
BLOCK
  5
9EC12
330
9EC11
100
AcDbEntity
  8
0
100
AcDbBlockBegin
  2
_Open90
 70
     0
 10
0.0
 20
0.0
 30
0.0
  3
_Open90
  1

  0
LINE
  5
9EC13
330
9EC11
100
AcDbEntity
  8
L-dtl-htch
 62
     0
370
    -2
100
AcDbLine
 10
-0.5
 20
0.5
 30
0.0
 11
0.0
 21
0.0
 31
0.0
  0
LINE
  5
9EC14
330
9EC11
100
AcDbEntity
  8
L-dtl-htch
 62
     0
370
    -2
100
AcDbLine
 10
0.0
 20
0.0
 30
0.0
 11
-0.5
 21
-0.5
 31
0.0
  0
LINE
  5
9EC15
330
9EC11
100
AcDbEntity
  8
L-dtl-htch
 62
     0
370
    -2
100
AcDbLine
 10
0.0
 20
0.0
 30
0.0
 11
-1.0
 21
0.0
 31
0.0
  0
ENDBLK
  5
9EC16
330
9EC11
100
AcDbEntity
  8
0
100
AcDbBlockEnd
  0
BLOCK
  5
A024F
330
A024C
100
AcDbEntity
  8
0
100
AcDbBlockBegin
  2
_Integral
 70
     0
 10
0.0
 20
0.0
 30
0.0
  3
_Integral
  1

  0
ARC
  5
A024D
330
A024C
100
AcDbEntity
  8
0
  6
ByBlock
 62
     0
370
    -2
100
AcDbCircle
 10
0.44488802
 20
-0.09133463
 30
0.0
 40
0.4541666700000001
100
AcDbArc
 50
101.9999999980395
 51
167.9999999799193
  0
ARC
  5
A024E
330
A024C
100
AcDbEntity
  8
0
  6
ByBlock
 62
     0
370
    -2
100
AcDbCircle
 10
-0.44488802
 20
0.09133463
 30
0.0
 40
0.4541666700000001
100
AcDbArc
 50
282.0000000215427
 51
348.0000000034225
  0
ENDBLK
  5
A0250
330
A024C
100
AcDbEntity
  8
0
100
AcDbBlockEnd
  0
BLOCK
  5
A21A2
330
A21A0
100
AcDbEntity
 67
     1
  8
0
100
AcDbBlockBegin
  2
*Paper_Space3
 70
     0
 10
0.0
 20
0.0
 30
0.0
  3
*Paper_Space3
  1

  0
VIEWPORT
  5
A21AE
102
{ACAD_XDICTIONARY
360
A21AF
102
}
330
A21A0
100
AcDbEntity
 67
     1
  8
0
100
AcDbViewport
 10
5.151551265840437
 20
3.674773737599334
 30
0.0
 40
20.07837625521706
 41
9.705725450450763
 68
     0
 69
     0
 12
5.151551265840437
 22
3.674773737599334
 13
0.0
 23
0.0
 14
0.5
 24
0.5
 15
0.5
 25
0.5
 16
0.0
 26
0.0
 36
1.0
 17
0.0
 27
0.0
 37
0.0
 42
50.0
 43
0.0
 44
0.0
 45
9.705725450450763
 50
0.0
 51
0.0
 72
  1000
 90
   819232
  1

281
     0
 71
     1
 74
     0
110
0.0
120
0.0
130
0.0
111
1.0
121
0.0
131
0.0
112
0.0
122
1.0
132
0.0
 79
     0
146
0.0
170
     0
 61
     5
348
9F
292
     1
282
     1
141
0.0
142
0.0
 63
   250
421
  3355443
  0
VIEWPORT
  5
A21B2
102
{ACAD_XDICTIONARY
360
A21B3
102
}
330
A21A0
100
AcDbEntity
 67
     1
  8
HI No Print
100
AcDbViewport
 10
4.807258931670588
 20
4.0197692194672
 30
0.0
 40
9.521960265855952
 41
7.958251408262441
 68
     0
 69
     0
 12
122.8267948777534
 22
46.87991546948302
 13
0.0
 23
0.0
 14
0.5
 24
0.5
 15
0.5
 25
0.5
 16
0.0
 26
0.0
 36
178.3294139684135
 17
-100.2903367760448
 27
-56.40334146147367
 37
0.0
 42
50.0
 43
0.0
 44
0.0
 45
46.88403416706408
 50
0.0
 51
0.0
 72
  1000
 90
   557664
  1

281
     0
 71
     1
 74
     0
110
0.0
120
0.0
130
0.0
111
1.0
121
0.0
131
0.0
112
0.0
122
1.0
132
0.0
 79
     0
146
0.0
170
     0
 61
     5
348
9F
292
     1
282
     1
141
0.0
142
0.0
 63
   250
421
  3355443
  0
ENDBLK
  5
A21A3
330
A21A0
100
AcDbEntity
 67
     1
  8
0
100
AcDbBlockEnd
  0
BLOCK
  5
A3B4A
330
A3B49
100
AcDbEntity
  8
0
100
AcDbBlockBegin
  2
_FILLED
 70
     0
 10
0.0
 20
0.0
 30
0.0
  3
_FILLED
  1

  0
SOLID
  5
A3B4B
330
A3B49
100
AcDbEntity
  8
0
  6
ByBlock
 62
     0
100
AcDbTrace
 10
0.0
 20
0.0
 30
0.0
 11
-1.0
 21
0.16875
 31
0.0
 12
-1.0
 22
-0.16875
 32
0.0
 13
-1.0
 23
-0.16875
 33
0.0
  0
ENDBLK
  5
A3B4C
330
A3B49
100
AcDbEntity
  8
0
  6
ByBlock
 62
     0
100
AcDbBlockEnd
  0
ENDSEC
  0
SECTION
  2
ENTITIES
  0
LWPOLYLINE
  5
AD3BD
330
1F
100
AcDbEntity
  8
HI Detail 3
100
AcDbPolyline
 90
       21
 70
     1
 43
0.0
 10
22.59392456581327
 20
-7.891734615805631
 10
22.58333614569669
 20
-8.006779471120836
 10
22.60276394338878
 20
-8.083378564750688
 10
22.62396129478178
 20
-8.166301707699489
 10
22.69224607591555
 20
-8.206594111964506
 10
22.78005082177144
 20
-8.293579111896889
 10
22.89567269608209
 20
-8.312863552747046
 10
23.00991333024106
 20
-8.265000765183714
 10
23.09501273402462
 20
-8.251753303809863
 10
23.17894626483506
 20
-8.166301707699489
 10
23.17894626483506
 20
-8.071807963298198
 10
23.20977880016841
 20
-7.967671919649802
 10
23.19595454479942
 20
-7.893248314119574
 10
23.15965125692469
 20
-7.809992226905052
 10
23.09222987575073
 20
-7.784469652751425
 10
23.02092968773842
 20
-7.697689747747801
 10
22.93035926503477
 20
-7.691904368199544
 10
22.84942395967677
 20
-7.707331889350854
 10
22.74065048194673
 20
-7.72673613969053
 10
22.67599111491344
 20
-7.759399989997092
 10
22.63166942861511
 20
-7.821110232246354
  0
LWPOLYLINE
  5
AD3BE
330
1F
100
AcDbEntity
  8
HI Detail 3
100
AcDbPolyline
 90
       74
 70
     1
 43
0.0
 10
26.04267053498699
 20
-6.071560164110877
 10
26.01831397761519
 20
-5.661699677029048
 10
25.6642293428514
 20
-5.363655819738937
 10
25.47672090534111
 20
-4.991099350420171
 10
25.18800916886558
 20
-5.022603425250224
 10
25.03550524052679
 20
-4.726397340786746
 10
24.43167632266413
 20
-4.436937911480754
 10
23.98444882610482
 20
-4.328898841664283
 10
23.20732953147979
 20
-4.172853550064786
 10
23.17459584644297
 20
-4.549608518422644
 10
22.9082390847409
 20
-4.506836785794348
 10
22.68699622892862
 20
-4.268966995839633
 10
22.45519940284749
 20
-4.397532481904335
 10
21.91573520738091
 20
-4.414866473567087
 10
21.78902551082543
 20
-4.280193971353554
 10
21.48523642467472
 20
-4.369216976469061
 10
21.31874520054132
 20
-4.654204761434129
 10
20.8012333937525
 20
-5.025003426522147
 10
20.57121429511813
 20
-4.942239397057818
 10
20.39172127905621
 20
-5.444073973660408
 10
20.10659006752419
 20
-5.305175393736021
 10
19.8556886325771
 20
-5.386335953050917
 10
19.9054384193397
 20
-5.740054026165495
 10
19.97438091586696
 20
-6.124544715333655
 10
19.8417033365977
 20
-6.273745846093902
 10
19.54008298186394
 20
-6.371312751983083
 10
19.32351107718323
 20
-6.530824089194936
 10
19.41511274777822
 20
-6.964735634704425
 10
19.66358435202977
 20
-7.356035775880599
 10
19.5483062143569
 20
-7.677956841869871
 10
19.15840680480416
 20
-7.804079891594625
 10
19.04635936593557
 20
-8.035500352006494
 10
19.14357313498151
 20
-8.386273200155784
 10
19.04232536246388
 20
-8.500347730144198
 10
19.16182124351357
 20
-8.819515906281196
 10
19.45088021255481
 20
-8.951124252516137
 10
19.75350507049127
 20
-9.39255902583335
 10
19.44158163333678
 20
-9.67694230587773
 10
19.87759749106385
 20
-10.02740088280478
 10
20.13274614049333
 20
-10.40286891947397
 10
20.60805517074826
 20
-10.38884137826596
 10
20.66663545571405
 20
-10.68298662639924
 10
20.61319737650634
 20
-10.97038696545505
 10
21.08541621433231
 20
-11.17371002458648
 10
21.4569471780641
 20
-11.19177816929303
 10
21.66276550492239
 20
-11.4260969908513
 10
21.79089192896667
 20
-11.59609146968506
 10
22.21259919312719
 20
-11.4678118260351
 10
22.30134896106402
 20
-11.66680841583019
 10
22.5294033113975
 20
-11.59303833702949
 10
22.78931153285865
 20
-11.79359567004107
 10
23.18486912939087
 20
-11.86081815130279
 10
23.56264914243221
 20
-11.72235072090802
 10
23.74158874575519
 20
-11.67260031103498
 10
23.87311229442122
 20
-11.4511445120813
 10
24.1507520108447
 20
-11.58090752840272
 10
24.41896595698394
 20
-11.40715124320976
 10
24.48438783745276
 20
-11.1605026217727
 10
24.77713361172016
 20
-10.93552544564323
 10
25.19952836811726
 20
-11.04943115464502
 10
25.7834356364199
 20
-10.622084334286
 10
26.0573011027914
 20
-10.3360664446792
 10
26.26225230716018
 20
-9.684533124646378
 10
26.38000994329941
 20
-9.307991586920849
 10
26.21748366784853
 20
-8.979808630961997
 10
26.33959471171881
 20
-8.834543143656418
 10
26.74799973309838
 20
-8.681280725259057
 10
26.88695737197229
 20
-8.304932253667317
 10
26.50417060324021
 20
-7.94928398758725
 10
26.63564533021236
 20
-7.702274818712112
 10
26.80539065186682
 20
-7.442886036024191
 10
26.64979522565221
 20
-7.049001859898481
 10
26.60547438623209
 20
-6.781297054037395
 10
26.1827202078406
 20
-6.389219779487888
  0
LWPOLYLINE
  5
AD3C3
330
1F
100
AcDbEntity
  8
HI Detail 3
100
AcDbPolyline
 90
       21
 70
     1
 43
0.0
 10
12.06220251761186
 20
-7.891734615805631
 10
12.05161409749529
 20
-8.006779471120836
 10
12.07104189518737
 20
-8.083378564750688
 10
12.09223924658038
 20
-8.166301707699489
 10
12.16052402771415
 20
-8.206594111964506
 10
12.24832877357004
 20
-8.293579111896889
 10
12.36395064788068
 20
-8.312863552747046
 10
12.47819128203966
 20
-8.265000765183714
 10
12.56329068582322
 20
-8.251753303809863
 10
12.64722421663366
 20
-8.166301707699489
 10
12.64722421663366
 20
-8.071807963298198
 10
12.678056751967
 20
-7.967671919649802
 10
12.66423249659802
 20
-7.893248314119574
 10
12.62792920872328
 20
-7.809992226905052
 10
12.56050782754933
 20
-7.784469652751425
 10
12.48920763953701
 20
-7.697689747747801
 10
12.39863721683336
 20
-7.691904368199544
 10
12.31770191147537
 20
-7.707331889350854
 10
12.20892843374533
 20
-7.72673613969053
 10
12.14426906671204
 20
-7.759399989997092
 10
12.09994738041371
 20
-7.821110232246354
  0
LWPOLYLINE
  5
AD3C4
330
1F
100
AcDbEntity
  8
HI Detail 3
100
AcDbPolyline
 90
       74
 70
     1
 43
0.0
 10
15.51094848678558
 20
-6.071560164110877
 10
15.48659192941378
 20
-5.661699677029048
 10
15.13250729464999
 20
-5.363655819738937
 10
14.94499885713971
 20
-4.991099350420171
 10
14.65628712066417
 20
-5.022603425250224
 10
14.50378319232538
 20
-4.726397340786746
 10
13.89995427446273
 20
-4.436937911480754
 10
13.45272677790342
 20
-4.328898841664283
 10
12.67560748327839
 20
-4.172853550064786
 10
12.64287379824157
 20
-4.549608518422644
 10
12.3765170365395
 20
-4.506836785794348
 10
12.15527418072722
 20
-4.268966995839633
 10
11.92347735464608
 20
-4.397532481904335
 10
11.3840131591795
 20
-4.414866473567087
 10
11.25730346262402
 20
-4.280193971353554
 10
10.95351437647332
 20
-4.369216976469061
 10
10.78702315233991
 20
-4.654204761434129
 10
10.26951134555109
 20
-5.025003426522147
 10
10.03949224691672
 20
-4.942239397057818
 10
9.859999230854811
 20
-5.444073973660408
 10
9.574868019322792
 20
-5.305175393736021
 10
9.323966584375696
 20
-5.386335953050917
 10
9.3737163711383
 20
-5.740054026165495
 10
9.442658867665556
 20
-6.124544715333655
 10
9.309981288396301
 20
-6.273745846093902
 10
9.008360933662544
 20
-6.371312751983083
 10
8.791789028981824
 20
-6.530824089194936
 10
8.883390699576821
 20
-6.964735634704425
 10
9.13186230382837
 20
-7.356035775880599
 10
9.016584166155496
 20
-7.677956841869871
 10
8.626684756602756
 20
-7.804079891594625
 10
8.51463731773417
 20
-8.035500352006494
 10
8.611851086780106
 20
-8.386273200155784
 10
8.510603314262482
 20
-8.500347730144198
 10
8.630099195312169
 20
-8.819515906281196
 10
8.919158164353405
 20
-8.951124252516137
 10
9.221783022289869
 20
-9.39255902583335
 10
8.909859585135379
 20
-9.67694230587773
 10
9.34587544286245
 20
-10.02740088280478
 10
9.601024092291922
 20
-10.40286891947397
 10
10.07633312254685
 20
-10.38884137826596
 10
10.13491340751264
 20
-10.68298662639924
 10
10.08147532830493
 20
-10.97038696545505
 10
10.55369416613091
 20
-11.17371002458648
 10
10.92522512986269
 20
-11.19177816929303
 10
11.13104345672099
 20
-11.4260969908513
 10
11.25916988076527
 20
-11.59609146968506
 10
11.68087714492578
 20
-11.4678118260351
 10
11.76962691286262
 20
-11.66680841583019
 10
11.9976812631961
 20
-11.59303833702949
 10
12.25758948465724
 20
-11.79359567004107
 10
12.65314708118947
 20
-11.86081815130279
 10
13.0309270942308
 20
-11.72235072090802
 10
13.20986669755379
 20
-11.67260031103498
 10
13.34139024621981
 20
-11.4511445120813
 10
13.61902996264329
 20
-11.58090752840272
 10
13.88724390878254
 20
-11.40715124320976
 10
13.95266578925135
 20
-11.1605026217727
 10
14.24541156351876
 20
-10.93552544564323
 10
14.66780631991585
 20
-11.04943115464502
 10
15.25171358821849
 20
-10.622084334286
 10
15.52557905458999
 20
-10.3360664446792
 10
15.73053025895878
 20
-9.684533124646378
 10
15.848287895098
 20
-9.307991586920849
 10
15.68576161964712
 20
-8.979808630961997
 10
15.8078726635174
 20
-8.834543143656418
 10
16.21627768489698
 20
-8.681280725259057
 10
16.35523532377088
 20
-8.304932253667317
 10
15.97244855503881
 20
-7.94928398758725
 10
16.10392328201095
 20
-7.702274818712112
 10
16.27366860366542
 20
-7.442886036024191
 10
16.1180731774508
 20
-7.049001859898481
 10
16.07375233803068
 20
-6.781297054037395
 10
15.6509981596392
 20
-6.389219779487888
  0
LWPOLYLINE
  5
AD3C6
330
1F
100
AcDbEntity
  8
HI Detail 3
100
AcDbPolyline
 90
       21
 70
     1
 43
0.0
 10
1.530480469410463
 20
-7.891734615805631
 10
1.519892049293886
 20
-8.006779471120836
 10
1.539319846985975
 20
-8.083378564750688
 10
1.560517198378974
 20
-8.166301707699489
 10
1.628801979512743
 20
-8.206594111964506
 10
1.716606725368635
 20
-8.293579111896889
 10
1.832228599679282
 20
-8.312863552747046
 10
1.946469233838257
 20
-8.265000765183714
 10
2.031568637621816
 20
-8.251753303809863
 10
2.115502168432257
 20
-8.166301707699489
 10
2.115502168432257
 20
-8.071807963298198
 10
2.146334703765603
 20
-7.967671919649802
 10
2.132510448396615
 20
-7.893248314119574
 10
2.096207160521885
 20
-7.809992226905052
 10
2.028785779347927
 20
-7.784469652751425
 10
1.957485591335611
 20
-7.697689747747801
 10
1.866915168631962
 20
-7.691904368199544
 10
1.785979863273965
 20
-7.707331889350854
 10
1.677206385543925
 20
-7.72673613969053
 10
1.612547018510639
 20
-7.759399989997092
 10
1.568225332212307
 20
-7.821110232246354
  0
LWPOLYLINE
  5
AD3C7
330
1F
100
AcDbEntity
  8
HI Detail 3
100
AcDbPolyline
 90
       74
 70
     1
 43
0.0
 10
4.979226438584184
 20
-6.071560164110877
 10
4.954869881212381
 20
-5.661699677029048
 10
4.600785246448594
 20
-5.363655819738937
 10
4.413276808938306
 20
-4.991099350420171
 10
4.124565072462772
 20
-5.022603425250224
 10
3.972061144123983
 20
-4.726397340786746
 10
3.368232226261326
 20
-4.436937911480754
 10
2.921004729702019
 20
-4.328898841664283
 10
2.143885435076985
 20
-4.172853550064786
 10
2.111151750040168
 20
-4.549608518422644
 10
1.844794988338097
 20
-4.506836785794348
 10
1.623552132525819
 20
-4.268966995839633
 10
1.391755306444682
 20
-4.397532481904335
 10
0.8522911109781041
 20
-4.414866473567087
 10
0.7255814144226243
 20
-4.280193971353554
 10
0.4217923282719199
 20
-4.369216976469061
 10
0.2553011041385105
 20
-4.654204761434129
 10
-0.2622107026503073
 20
-5.025003426522147
 10
-0.4922298012846796
 20
-4.942239397057818
 10
-0.6717228173465913
 20
-5.444073973660408
 10
-0.9568540288786095
 20
-5.305175393736021
 10
-1.207755463825705
 20
-5.386335953050917
 10
-1.158005677063101
 20
-5.740054026165495
 10
-1.089063180535845
 20
-6.124544715333655
 10
-1.221740759805101
 20
-6.273745846093902
 10
-1.523361114538857
 20
-6.371312751983083
 10
-1.739933019219577
 20
-6.530824089194936
 10
-1.64833134862458
 20
-6.964735634704425
 10
-1.399859744373031
 20
-7.356035775880599
 10
-1.515137882045905
 20
-7.677956841869871
 10
-1.905037291598645
 20
-7.804079891594625
 10
-2.017084730467232
 20
-8.035500352006494
 10
-1.919870961421295
 20
-8.386273200155784
 10
-2.021118733938919
 20
-8.500347730144198
 10
-1.901622852889232
 20
-8.819515906281196
 10
-1.612563883847997
 20
-8.951124252516137
 10
-1.309939025911532
 20
-9.39255902583335
 10
-1.621862463066022
 20
-9.67694230587773
 10
-1.185846605338952
 20
-10.02740088280478
 10
-0.9306979559094799
 20
-10.40286891947397
 10
-0.4553889256545461
 20
-10.38884137826596
 10
-0.3968086406887607
 20
-10.68298662639924
 10
-0.4502467198964695
 20
-10.97038696545505
 10
0.0219721179295078
 20
-11.17371002458648
 10
0.3935030816612936
 20
-11.19177816929303
 10
0.599321408519586
 20
-11.4260969908513
 10
0.7274478325638683
 20
-11.59609146968506
 10
1.149155096724385
 20
-11.4678118260351
 10
1.237904864661217
 20
-11.66680841583019
 10
1.465959214994697
 20
-11.59303833702949
 10
1.725867436455843
 20
-11.79359567004107
 10
2.121425032988071
 20
-11.86081815130279
 10
2.499205046029402
 20
-11.72235072090802
 10
2.67814464935239
 20
-11.67260031103498
 10
2.809668198018414
 20
-11.4511445120813
 10
3.087307914441893
 20
-11.58090752840272
 10
3.355521860581134
 20
-11.40715124320976
 10
3.420943741049953
 20
-11.1605026217727
 10
3.713689515317355
 20
-10.93552544564323
 10
4.136084271714452
 20
-11.04943115464502
 10
4.71999154001709
 20
-10.622084334286
 10
4.993857006388594
 20
-10.3360664446792
 10
5.198808210757377
 20
-9.684533124646378
 10
5.316565846896601
 20
-9.307991586920849
 10
5.154039571445721
 20
-8.979808630961997
 10
5.276150615315998
 20
-8.834543143656418
 10
5.684555636695577
 20
-8.681280725259057
 10
5.823513275569482
 20
-8.304932253667317
 10
5.440726506837407
 20
-7.94928398758725
 10
5.572201233809551
 20
-7.702274818712112
 10
5.741946555464018
 20
-7.442886036024191
 10
5.586351129249401
 20
-7.049001859898481
 10
5.542030289829284
 20
-6.781297054037395
 10
5.119276111437798
 20
-6.389219779487888
  0
LINE
  5
AD3C9
330
1F
100
AcDbEntity
  8
HI Deatil 2
100
AcDbLine
 10
1.701372003510144
 20
-9.737706921354259
 30
0.0
 11
2.143319982307986
 21
-9.737706921354259
 31
0.0
  0
LINE
  5
AD3CA
330
1F
100
AcDbEntity
  8
HI Deatil 2
100
AcDbLine
 10
2.2742538259957
 20
-9.737706921354259
 30
0.0
 11
6.310859048838494
 21
-9.737706921354263
 31
0.0
  0
LINE
  5
AD3CB
330
1F
100
AcDbEntity
  8
HI Deatil 2
100
AcDbLine
 10
6.441792892526194
 20
-9.737706921354263
 30
0.0
 11
6.883740871324036
 21
-9.737706921354263
 31
0.0
  0
LINE
  5
AD3CC
330
1F
100
AcDbEntity
  8
HI Deatil 2
100
AcDbLine
 10
7.01467471501175
 20
-9.737706921354263
 30
0.0
 11
11.05127993785454
 21
-9.737706921354266
 31
0.0
  0
LINE
  5
AD3CD
330
1F
100
AcDbEntity
  8
HI Deatil 2
100
AcDbLine
 10
11.18221378154224
 20
-9.737706921354266
 30
0.0
 11
11.62416176034009
 21
-9.737706921354266
 31
0.0
  0
LINE
  5
AD3CE
330
1F
100
AcDbEntity
  8
HI Deatil 2
100
AcDbLine
 10
11.7550956040278
 20
-9.737706921354266
 30
0.0
 11
15.79170082687059
 21
-9.73770692135427
 31
0.0
  0
LINE
  5
AD3CF
330
1F
100
AcDbEntity
  8
HI Deatil 2
100
AcDbLine
 10
15.92263467055829
 20
-9.73770692135427
 30
0.0
 11
16.36458264935614
 21
-9.73770692135427
 31
0.0
  0
LINE
  5
AD3D0
330
1F
100
AcDbEntity
  8
HI Deatil 2
100
AcDbLine
 10
16.49551649304385
 20
-9.73770692135427
 30
0.0
 11
20.53212171588665
 21
-9.737706921354273
 31
0.0
  0
LINE
  5
AD3D1
330
1F
100
AcDbEntity
  8
HI Deatil 2
100
AcDbLine
 10
20.66305555957435
 20
-9.737706921354273
 30
0.0
 11
21.10500353837219
 21
-9.737706921354273
 31
0.0
  0
LINE
  5
AD3D4
330
1F
100
AcDbEntity
  8
HI Deatil 2
100
AcDbLine
 10
1.701372003510158
 20
-10.16697033047637
 30
0.0
 11
2.143319982308
 21
-10.16697033047637
 31
0.0
  0
LINE
  5
AD3D5
330
1F
100
AcDbEntity
  8
HI Deatil 2
100
AcDbLine
 10
2.274253825995714
 20
-10.16697033047637
 30
0.0
 11
6.310859048838509
 21
-10.16697033047638
 31
0.0
  0
LINE
  5
AD3D6
330
1F
100
AcDbEntity
  8
HI Deatil 2
100
AcDbLine
 10
6.441792892526208
 20
-10.16697033047638
 30
0.0
 11
6.88374087132405
 21
-10.16697033047638
 31
0.0
  0
LINE
  5
AD3D7
330
1F
100
AcDbEntity
  8
HI Deatil 2
100
AcDbLine
 10
7.014674715011764
 20
-10.16697033047638
 30
0.0
 11
11.05127993785456
 21
-10.16697033047638
 31
0.0
  0
LINE
  5
AD3D8
330
1F
100
AcDbEntity
  8
HI Deatil 2
100
AcDbLine
 10
11.18221378154226
 20
-10.16697033047638
 30
0.0
 11
11.6241617603401
 21
-10.16697033047638
 31
0.0
  0
LINE
  5
AD3D9
330
1F
100
AcDbEntity
  8
HI Deatil 2
100
AcDbLine
 10
11.75509560402781
 20
-10.16697033047638
 30
0.0
 11
15.79170082687061
 21
-10.16697033047638
 31
0.0
  0
LINE
  5
AD3DA
330
1F
100
AcDbEntity
  8
HI Deatil 2
100
AcDbLine
 10
15.92263467055831
 20
-10.16697033047638
 30
0.0
 11
16.36458264935615
 21
-10.16697033047638
 31
0.0
  0
LINE
  5
AD3DB
330
1F
100
AcDbEntity
  8
HI Deatil 2
100
AcDbLine
 10
16.49551649304386
 20
-10.16697033047638
 30
0.0
 11
20.53212171588666
 21
-10.16697033047639
 31
0.0
  0
LINE
  5
AD3DC
330
1F
100
AcDbEntity
  8
HI Deatil 2
100
AcDbLine
 10
20.66305555957436
 20
-10.16697033047639
 30
0.0
 11
21.1050035383722
 21
-10.16697033047639
 31
0.0
  0
LWPOLYLINE
  5
AD3DE
102
{ACAD_REACTORS
330
AD4A5
102
}
330
1F
100
AcDbEntity
  8
HI Deatil 2
100
AcDbPolyline
 90
        2
 70
     0
 43
0.0
 10
1.701372003510144
 20
-9.737706921354263
 10
2.143319982307986
 20
-9.737706921354263
  0
LWPOLYLINE
  5
AD3DF
102
{ACAD_REACTORS
330
AD4A5
102
}
330
1F
100
AcDbEntity
  8
HI Deatil 2
100
AcDbPolyline
 90
        2
 70
     0
 43
0.0
 10
1.701372003510158
 20
-10.16697033047637
 10
2.143319982308
 20
-10.16697033047637
  0
LWPOLYLINE
  5
AD3E0
102
{ACAD_REACTORS
330
AD4A5
102
}
330
1F
100
AcDbEntity
  8
HI Deatil 2
100
AcDbPolyline
 90
        2
 70
     0
 43
0.0
 10
1.570438159822444
 20
-9.737706921354263
 10
1.605030347948215
 20
-9.709338935497026
  0
LWPOLYLINE
  5
AD3E1
102
{ACAD_REACTORS
330
AD4A5
102
}
330
1F
100
AcDbEntity
  8
HI Deatil 2
100
AcDbPolyline
 90
        2
 70
     0
 43
0.0
 10
1.701372003510144
 20
-9.737706921354263
 10
1.665906542012521
 20
-9.709095022479832
  0
ARC
  5
AD3E2
102
{ACAD_REACTORS
330
AD4A5
102
}
330
1F
100
AcDbEntity
  8
HI Deatil 2
100
AcDbCircle
 10
1.635628073193998
 20
-9.749057239350097
 30
0.0
 40
0.0501374555714761
100
AcDbArc
 50
52.8496131518858
 51
127.6095190880154
  0
LWPOLYLINE
  5
AD3E3
102
{ACAD_REACTORS
330
AD4A5
102
}
330
1F
100
AcDbEntity
  8
HI HATCH FILL
100
AcDbPolyline
 90
        2
 70
     0
 43
0.0
 10
1.635427188758157
 20
-9.810438182303535
 10
1.635427188758157
 20
-10.09533617457857
  0
LWPOLYLINE
  5
AD3E4
102
{ACAD_REACTORS
330
AD4A5
102
}
330
1F
100
AcDbEntity
  8
HI Deatil 2
100
AcDbPolyline
 90
        2
 70
     0
 43
0.0
 10
1.570438159822458
 20
-10.16697033047637
 10
1.605030347948229
 20
-10.19533831633361
  0
LWPOLYLINE
  5
AD3E5
102
{ACAD_REACTORS
330
AD4A5
102
}
330
1F
100
AcDbEntity
  8
HI Deatil 2
100
AcDbPolyline
 90
        2
 70
     0
 43
0.0
 10
1.701372003510158
 20
-10.16697033047637
 10
1.665906542012535
 20
-10.1955822293508
  0
ARC
  5
AD3E6
102
{ACAD_REACTORS
330
AD4A5
102
}
330
1F
100
AcDbEntity
  8
HI Deatil 2
100
AcDbCircle
 10
1.635628073194013
 20
-10.15562001248054
 30
0.0
 40
0.0501374555714761
100
AcDbArc
 50
232.3904809119845
 51
307.1503868481142
  0
LWPOLYLINE
  5
AD3E7
102
{ACAD_REACTORS
330
AD4A5
102
}
330
1F
100
AcDbEntity
  8
HI Deatil 2
100
AcDbPolyline
 90
        2
 70
     0
 43
0.0
 10
2.143319982307986
 20
-9.737706921354263
 10
2.177912170433785
 20
-9.709338935497026
  0
LWPOLYLINE
  5
AD3E8
102
{ACAD_REACTORS
330
AD4A5
102
}
330
1F
100
AcDbEntity
  8
HI Deatil 2
100
AcDbPolyline
 90
        2
 70
     0
 43
0.0
 10
2.2742538259957
 20
-9.737706921354263
 10
2.238788364498077
 20
-9.709095022479832
  0
ARC
  5
AD3E9
102
{ACAD_REACTORS
330
AD4A5
102
}
330
1F
100
AcDbEntity
  8
HI Deatil 2
100
AcDbCircle
 10
2.208509895679554
 20
-9.749057239350097
 30
0.0
 40
0.0501374555714761
100
AcDbArc
 50
52.8496131518858
 51
127.6095190880154
  0
LWPOLYLINE
  5
AD3EA
102
{ACAD_REACTORS
330
AD4A5
102
}
330
1F
100
AcDbEntity
  8
HI HATCH FILL
100
AcDbPolyline
 90
        2
 70
     0
 43
0.0
 10
2.208309011243713
 20
-9.810438182303535
 10
2.208309011243713
 20
-10.09533617457857
  0
LWPOLYLINE
  5
AD3EB
102
{ACAD_REACTORS
330
AD4A5
102
}
330
1F
100
AcDbEntity
  8
HI Deatil 2
100
AcDbPolyline
 90
        2
 70
     0
 43
0.0
 10
2.143319982308
 20
-10.16697033047637
 10
2.177912170433799
 20
-10.19533831633361
  0
LWPOLYLINE
  5
AD3EC
102
{ACAD_REACTORS
330
AD4A5
102
}
330
1F
100
AcDbEntity
  8
HI Deatil 2
100
AcDbPolyline
 90
        2
 70
     0
 43
0.0
 10
2.274253825995714
 20
-10.16697033047637
 10
2.238788364498091
 20
-10.1955822293508
  0
ARC
  5
AD3ED
102
{ACAD_REACTORS
330
AD4A5
102
}
330
1F
100
AcDbEntity
  8
HI Deatil 2
100
AcDbCircle
 10
2.208509895679569
 20
-10.15562001248054
 30
0.0
 40
0.0501374555714761
100
AcDbArc
 50
232.3904809119845
 51
307.1503868481142
  0
CIRCLE
  5
AD3EE
102
{ACAD_REACTORS
330
AD4A5
102
}
330
1F
100
AcDbEntity
  8
HI HATCH FILL
100
AcDbCircle
 10
1.921868100000921
 20
-9.952887178441052
 30
0.0
 40
0.0477196295443069
  0
LWPOLYLINE
  5
AD3EF
102
{ACAD_REACTORS
330
AD4A6
102
}
330
1F
100
AcDbEntity
  8
HI Deatil 2
100
AcDbPolyline
 90
        2
 70
     0
 43
0.0
 10
6.441792892526194
 20
-9.737706921354263
 10
6.883740871324036
 20
-9.737706921354263
  0
LWPOLYLINE
  5
AD3F0
102
{ACAD_REACTORS
330
AD4A6
102
}
330
1F
100
AcDbEntity
  8
HI Deatil 2
100
AcDbPolyline
 90
        2
 70
     0
 43
0.0
 10
6.441792892526208
 20
-10.16697033047637
 10
6.88374087132405
 20
-10.16697033047637
  0
LWPOLYLINE
  5
AD3F1
102
{ACAD_REACTORS
330
AD4A6
102
}
330
1F
100
AcDbEntity
  8
HI Deatil 2
100
AcDbPolyline
 90
        2
 70
     0
 43
0.0
 10
6.310859048838494
 20
-9.737706921354263
 10
6.345451236964265
 20
-9.709338935497026
  0
LWPOLYLINE
  5
AD3F2
102
{ACAD_REACTORS
330
AD4A6
102
}
330
1F
100
AcDbEntity
  8
HI Deatil 2
100
AcDbPolyline
 90
        2
 70
     0
 43
0.0
 10
6.441792892526194
 20
-9.737706921354263
 10
6.406327431028572
 20
-9.709095022479832
  0
ARC
  5
AD3F3
102
{ACAD_REACTORS
330
AD4A6
102
}
330
1F
100
AcDbEntity
  8
HI Deatil 2
100
AcDbCircle
 10
6.376048962210049
 20
-9.749057239350097
 30
0.0
 40
0.0501374555714761
100
AcDbArc
 50
52.8496131518858
 51
127.6095190880154
  0
LWPOLYLINE
  5
AD3F4
102
{ACAD_REACTORS
330
AD4A6
102
}
330
1F
100
AcDbEntity
  8
HI HATCH FILL
100
AcDbPolyline
 90
        2
 70
     0
 43
0.0
 10
6.375848077774207
 20
-9.810438182303535
 10
6.375848077774207
 20
-10.09533617457857
  0
LWPOLYLINE
  5
AD3F5
102
{ACAD_REACTORS
330
AD4A6
102
}
330
1F
100
AcDbEntity
  8
HI Deatil 2
100
AcDbPolyline
 90
        2
 70
     0
 43
0.0
 10
6.310859048838509
 20
-10.16697033047637
 10
6.345451236964279
 20
-10.19533831633361
  0
LWPOLYLINE
  5
AD3F6
102
{ACAD_REACTORS
330
AD4A6
102
}
330
1F
100
AcDbEntity
  8
HI Deatil 2
100
AcDbPolyline
 90
        2
 70
     0
 43
0.0
 10
6.441792892526208
 20
-10.16697033047637
 10
6.406327431028586
 20
-10.1955822293508
  0
ARC
  5
AD3F7
102
{ACAD_REACTORS
330
AD4A6
102
}
330
1F
100
AcDbEntity
  8
HI Deatil 2
100
AcDbCircle
 10
6.376048962210063
 20
-10.15562001248054
 30
0.0
 40
0.0501374555714761
100
AcDbArc
 50
232.3904809119845
 51
307.1503868481142
  0
LWPOLYLINE
  5
AD3F8
102
{ACAD_REACTORS
330
AD4A6
102
}
330
1F
100
AcDbEntity
  8
HI Deatil 2
100
AcDbPolyline
 90
        2
 70
     0
 43
0.0
 10
6.883740871324036
 20
-9.737706921354263
 10
6.918333059449835
 20
-9.709338935497026
  0
LWPOLYLINE
  5
AD3F9
102
{ACAD_REACTORS
330
AD4A6
102
}
330
1F
100
AcDbEntity
  8
HI Deatil 2
100
AcDbPolyline
 90
        2
 70
     0
 43
0.0
 10
7.01467471501175
 20
-9.737706921354263
 10
6.979209253514127
 20
-9.709095022479832
  0
ARC
  5
AD3FA
102
{ACAD_REACTORS
330
AD4A6
102
}
330
1F
100
AcDbEntity
  8
HI Deatil 2
100
AcDbCircle
 10
6.948930784695605
 20
-9.749057239350097
 30
0.0
 40
0.0501374555714761
100
AcDbArc
 50
52.8496131518858
 51
127.6095190880154
  0
LWPOLYLINE
  5
AD3FB
102
{ACAD_REACTORS
330
AD4A6
102
}
330
1F
100
AcDbEntity
  8
HI HATCH FILL
100
AcDbPolyline
 90
        2
 70
     0
 43
0.0
 10
6.948729900259763
 20
-9.810438182303535
 10
6.948729900259763
 20
-10.09533617457857
  0
LWPOLYLINE
  5
AD3FC
102
{ACAD_REACTORS
330
AD4A6
102
}
330
1F
100
AcDbEntity
  8
HI Deatil 2
100
AcDbPolyline
 90
        2
 70
     0
 43
0.0
 10
6.88374087132405
 20
-10.16697033047637
 10
6.918333059449849
 20
-10.19533831633361
  0
LWPOLYLINE
  5
AD3FD
102
{ACAD_REACTORS
330
AD4A6
102
}
330
1F
100
AcDbEntity
  8
HI Deatil 2
100
AcDbPolyline
 90
        2
 70
     0
 43
0.0
 10
7.014674715011764
 20
-10.16697033047637
 10
6.979209253514142
 20
-10.1955822293508
  0
ARC
  5
AD3FE
102
{ACAD_REACTORS
330
AD4A6
102
}
330
1F
100
AcDbEntity
  8
HI Deatil 2
100
AcDbCircle
 10
6.948930784695619
 20
-10.15562001248054
 30
0.0
 40
0.0501374555714761
100
AcDbArc
 50
232.3904809119845
 51
307.1503868481142
  0
CIRCLE
  5
AD3FF
102
{ACAD_REACTORS
330
AD4A6
102
}
330
1F
100
AcDbEntity
  8
HI HATCH FILL
100
AcDbCircle
 10
6.662288989016971
 20
-9.952887178441052
 30
0.0
 40
0.0477196295443069
  0
LWPOLYLINE
  5
AD400
102
{ACAD_REACTORS
330
AD4A7
102
}
330
1F
100
AcDbEntity
  8
HI Deatil 2
100
AcDbPolyline
 90
        2
 70
     0
 43
0.0
 10
11.18221378154224
 20
-9.737706921354266
 10
11.62416176034009
 20
-9.737706921354266
  0
LWPOLYLINE
  5
AD401
102
{ACAD_REACTORS
330
AD4A7
102
}
330
1F
100
AcDbEntity
  8
HI Deatil 2
100
AcDbPolyline
 90
        2
 70
     0
 43
0.0
 10
11.18221378154226
 20
-10.16697033047638
 10
11.6241617603401
 20
-10.16697033047638
  0
LWPOLYLINE
  5
AD402
102
{ACAD_REACTORS
330
AD4A7
102
}
330
1F
100
AcDbEntity
  8
HI Deatil 2
100
AcDbPolyline
 90
        2
 70
     0
 43
0.0
 10
11.05127993785454
 20
-9.737706921354266
 10
11.08587212598031
 20
-9.709338935497029
  0
LWPOLYLINE
  5
AD403
102
{ACAD_REACTORS
330
AD4A7
102
}
330
1F
100
AcDbEntity
  8
HI Deatil 2
100
AcDbPolyline
 90
        2
 70
     0
 43
0.0
 10
11.18221378154224
 20
-9.737706921354266
 10
11.14674832004462
 20
-9.709095022479836
  0
ARC
  5
AD404
102
{ACAD_REACTORS
330
AD4A7
102
}
330
1F
100
AcDbEntity
  8
HI Deatil 2
100
AcDbCircle
 10
11.1164698512261
 20
-9.749057239350101
 30
0.0
 40
0.0501374555714761
100
AcDbArc
 50
52.8496131518858
 51
127.6095190880154
  0
LWPOLYLINE
  5
AD405
102
{ACAD_REACTORS
330
AD4A7
102
}
330
1F
100
AcDbEntity
  8
HI HATCH FILL
100
AcDbPolyline
 90
        2
 70
     0
 43
0.0
 10
11.11626896679026
 20
-9.810438182303538
 10
11.11626896679026
 20
-10.09533617457858
  0
LWPOLYLINE
  5
AD406
102
{ACAD_REACTORS
330
AD4A7
102
}
330
1F
100
AcDbEntity
  8
HI Deatil 2
100
AcDbPolyline
 90
        2
 70
     0
 43
0.0
 10
11.05127993785456
 20
-10.16697033047638
 10
11.08587212598033
 20
-10.19533831633361
  0
LWPOLYLINE
  5
AD407
102
{ACAD_REACTORS
330
AD4A7
102
}
330
1F
100
AcDbEntity
  8
HI Deatil 2
100
AcDbPolyline
 90
        2
 70
     0
 43
0.0
 10
11.18221378154226
 20
-10.16697033047638
 10
11.14674832004463
 20
-10.19558222935081
  0
ARC
  5
AD408
102
{ACAD_REACTORS
330
AD4A7
102
}
330
1F
100
AcDbEntity
  8
HI Deatil 2
100
AcDbCircle
 10
11.11646985122611
 20
-10.15562001248054
 30
0.0
 40
0.0501374555714761
100
AcDbArc
 50
232.3904809119845
 51
307.1503868481142
  0
LWPOLYLINE
  5
AD409
102
{ACAD_REACTORS
330
AD4A7
102
}
330
1F
100
AcDbEntity
  8
HI Deatil 2
100
AcDbPolyline
 90
        2
 70
     0
 43
0.0
 10
11.62416176034009
 20
-9.737706921354266
 10
11.65875394846588
 20
-9.709338935497029
  0
LWPOLYLINE
  5
AD40A
102
{ACAD_REACTORS
330
AD4A7
102
}
330
1F
100
AcDbEntity
  8
HI Deatil 2
100
AcDbPolyline
 90
        2
 70
     0
 43
0.0
 10
11.7550956040278
 20
-9.737706921354266
 10
11.71963014253018
 20
-9.709095022479836
  0
ARC
  5
AD40B
102
{ACAD_REACTORS
330
AD4A7
102
}
330
1F
100
AcDbEntity
  8
HI Deatil 2
100
AcDbCircle
 10
11.68935167371165
 20
-9.749057239350101
 30
0.0
 40
0.0501374555714761
100
AcDbArc
 50
52.8496131518858
 51
127.6095190880154
  0
LWPOLYLINE
  5
AD40C
102
{ACAD_REACTORS
330
AD4A7
102
}
330
1F
100
AcDbEntity
  8
HI HATCH FILL
100
AcDbPolyline
 90
        2
 70
     0
 43
0.0
 10
11.68915078927581
 20
-9.810438182303538
 10
11.68915078927581
 20
-10.09533617457858
  0
LWPOLYLINE
  5
AD40D
102
{ACAD_REACTORS
330
AD4A7
102
}
330
1F
100
AcDbEntity
  8
HI Deatil 2
100
AcDbPolyline
 90
        2
 70
     0
 43
0.0
 10
11.6241617603401
 20
-10.16697033047638
 10
11.6587539484659
 20
-10.19533831633361
  0
LWPOLYLINE
  5
AD40E
102
{ACAD_REACTORS
330
AD4A7
102
}
330
1F
100
AcDbEntity
  8
HI Deatil 2
100
AcDbPolyline
 90
        2
 70
     0
 43
0.0
 10
11.75509560402781
 20
-10.16697033047638
 10
11.71963014253019
 20
-10.19558222935081
  0
ARC
  5
AD40F
102
{ACAD_REACTORS
330
AD4A7
102
}
330
1F
100
AcDbEntity
  8
HI Deatil 2
100
AcDbCircle
 10
11.68935167371167
 20
-10.15562001248054
 30
0.0
 40
0.0501374555714761
100
AcDbArc
 50
232.3904809119845
 51
307.1503868481142
  0
CIRCLE
  5
AD410
102
{ACAD_REACTORS
330
AD4A7
102
}
330
1F
100
AcDbEntity
  8
HI HATCH FILL
100
AcDbCircle
 10
11.40270987803302
 20
-9.952887178441056
 30
0.0
 40
0.0477196295443069
  0
LWPOLYLINE
  5
AD411
102
{ACAD_REACTORS
330
AD4A8
102
}
330
1F
100
AcDbEntity
  8
HI Deatil 2
100
AcDbPolyline
 90
        2
 70
     0
 43
0.0
 10
15.92263467055829
 20
-9.73770692135427
 10
16.36458264935614
 20
-9.73770692135427
  0
LWPOLYLINE
  5
AD412
102
{ACAD_REACTORS
330
AD4A8
102
}
330
1F
100
AcDbEntity
  8
HI Deatil 2
100
AcDbPolyline
 90
        2
 70
     0
 43
0.0
 10
15.92263467055831
 20
-10.16697033047638
 10
16.36458264935615
 20
-10.16697033047638
  0
LWPOLYLINE
  5
AD413
102
{ACAD_REACTORS
330
AD4A8
102
}
330
1F
100
AcDbEntity
  8
HI Deatil 2
100
AcDbPolyline
 90
        2
 70
     0
 43
0.0
 10
15.79170082687059
 20
-9.73770692135427
 10
15.82629301499636
 20
-9.709338935497033
  0
LWPOLYLINE
  5
AD414
102
{ACAD_REACTORS
330
AD4A8
102
}
330
1F
100
AcDbEntity
  8
HI Deatil 2
100
AcDbPolyline
 90
        2
 70
     0
 43
0.0
 10
15.92263467055829
 20
-9.73770692135427
 10
15.88716920906067
 20
-9.709095022479839
  0
ARC
  5
AD415
102
{ACAD_REACTORS
330
AD4A8
102
}
330
1F
100
AcDbEntity
  8
HI Deatil 2
100
AcDbCircle
 10
15.85689074024215
 20
-9.749057239350104
 30
0.0
 40
0.0501374555714761
100
AcDbArc
 50
52.8496131518858
 51
127.6095190880154
  0
LWPOLYLINE
  5
AD416
102
{ACAD_REACTORS
330
AD4A8
102
}
330
1F
100
AcDbEntity
  8
HI HATCH FILL
100
AcDbPolyline
 90
        2
 70
     0
 43
0.0
 10
15.85668985580631
 20
-9.810438182303542
 10
15.85668985580631
 20
-10.09533617457858
  0
LWPOLYLINE
  5
AD417
102
{ACAD_REACTORS
330
AD4A8
102
}
330
1F
100
AcDbEntity
  8
HI Deatil 2
100
AcDbPolyline
 90
        2
 70
     0
 43
0.0
 10
15.79170082687061
 20
-10.16697033047638
 10
15.82629301499638
 20
-10.19533831633362
  0
LWPOLYLINE
  5
AD418
102
{ACAD_REACTORS
330
AD4A8
102
}
330
1F
100
AcDbEntity
  8
HI Deatil 2
100
AcDbPolyline
 90
        2
 70
     0
 43
0.0
 10
15.92263467055831
 20
-10.16697033047638
 10
15.88716920906068
 20
-10.19558222935081
  0
ARC
  5
AD419
102
{ACAD_REACTORS
330
AD4A8
102
}
330
1F
100
AcDbEntity
  8
HI Deatil 2
100
AcDbCircle
 10
15.85689074024216
 20
-10.15562001248055
 30
0.0
 40
0.0501374555714761
100
AcDbArc
 50
232.3904809119845
 51
307.1503868481141
  0
LWPOLYLINE
  5
AD41A
102
{ACAD_REACTORS
330
AD4A8
102
}
330
1F
100
AcDbEntity
  8
HI Deatil 2
100
AcDbPolyline
 90
        2
 70
     0
 43
0.0
 10
16.36458264935614
 20
-9.73770692135427
 10
16.39917483748194
 20
-9.709338935497033
  0
LWPOLYLINE
  5
AD41B
102
{ACAD_REACTORS
330
AD4A8
102
}
330
1F
100
AcDbEntity
  8
HI Deatil 2
100
AcDbPolyline
 90
        2
 70
     0
 43
0.0
 10
16.49551649304385
 20
-9.73770692135427
 10
16.46005103154623
 20
-9.709095022479839
  0
ARC
  5
AD41C
102
{ACAD_REACTORS
330
AD4A8
102
}
330
1F
100
AcDbEntity
  8
HI Deatil 2
100
AcDbCircle
 10
16.4297725627277
 20
-9.749057239350104
 30
0.0
 40
0.0501374555714761
100
AcDbArc
 50
52.8496131518858
 51
127.6095190880154
  0
LWPOLYLINE
  5
AD41D
102
{ACAD_REACTORS
330
AD4A8
102
}
330
1F
100
AcDbEntity
  8
HI HATCH FILL
100
AcDbPolyline
 90
        2
 70
     0
 43
0.0
 10
16.42957167829186
 20
-9.810438182303542
 10
16.42957167829186
 20
-10.09533617457858
  0
LWPOLYLINE
  5
AD41E
102
{ACAD_REACTORS
330
AD4A8
102
}
330
1F
100
AcDbEntity
  8
HI Deatil 2
100
AcDbPolyline
 90
        2
 70
     0
 43
0.0
 10
16.36458264935615
 20
-10.16697033047638
 10
16.39917483748195
 20
-10.19533831633362
  0
LWPOLYLINE
  5
AD41F
102
{ACAD_REACTORS
330
AD4A8
102
}
330
1F
100
AcDbEntity
  8
HI Deatil 2
100
AcDbPolyline
 90
        2
 70
     0
 43
0.0
 10
16.49551649304386
 20
-10.16697033047638
 10
16.46005103154624
 20
-10.19558222935081
  0
ARC
  5
AD420
102
{ACAD_REACTORS
330
AD4A8
102
}
330
1F
100
AcDbEntity
  8
HI Deatil 2
100
AcDbCircle
 10
16.42977256272772
 20
-10.15562001248055
 30
0.0
 40
0.0501374555714761
100
AcDbArc
 50
232.3904809119845
 51
307.1503868481141
  0
CIRCLE
  5
AD421
102
{ACAD_REACTORS
330
AD4A8
102
}
330
1F
100
AcDbEntity
  8
HI HATCH FILL
100
AcDbCircle
 10
16.14313076704907
 20
-9.952887178441059
 30
0.0
 40
0.0477196295443069
  0
LWPOLYLINE
  5
AD422
102
{ACAD_REACTORS
330
AD4A9
102
}
330
1F
100
AcDbEntity
  8
HI Deatil 2
100
AcDbPolyline
 90
        2
 70
     0
 43
0.0
 10
20.66305555957435
 20
-9.737706921354273
 10
21.10500353837219
 20
-9.737706921354273
  0
LWPOLYLINE
  5
AD423
102
{ACAD_REACTORS
330
AD4A9
102
}
330
1F
100
AcDbEntity
  8
HI Deatil 2
100
AcDbPolyline
 90
        2
 70
     0
 43
0.0
 10
20.66305555957436
 20
-10.16697033047638
 10
21.1050035383722
 20
-10.16697033047638
  0
LWPOLYLINE
  5
AD424
102
{ACAD_REACTORS
330
AD4A9
102
}
330
1F
100
AcDbEntity
  8
HI Deatil 2
100
AcDbPolyline
 90
        2
 70
     0
 43
0.0
 10
20.53212171588665
 20
-9.737706921354273
 10
20.56671390401242
 20
-9.709338935497036
  0
LWPOLYLINE
  5
AD425
102
{ACAD_REACTORS
330
AD4A9
102
}
330
1F
100
AcDbEntity
  8
HI Deatil 2
100
AcDbPolyline
 90
        2
 70
     0
 43
0.0
 10
20.66305555957435
 20
-9.737706921354273
 10
20.62759009807672
 20
-9.709095022479843
  0
ARC
  5
AD426
102
{ACAD_REACTORS
330
AD4A9
102
}
330
1F
100
AcDbEntity
  8
HI Deatil 2
100
AcDbCircle
 10
20.5973116292582
 20
-9.749057239350108
 30
0.0
 40
0.0501374555714761
100
AcDbArc
 50
52.8496131518858
 51
127.6095190880154
  0
LWPOLYLINE
  5
AD427
102
{ACAD_REACTORS
330
AD4A9
102
}
330
1F
100
AcDbEntity
  8
HI HATCH FILL
100
AcDbPolyline
 90
        2
 70
     0
 43
0.0
 10
20.59711074482236
 20
-9.810438182303546
 10
20.59711074482236
 20
-10.09533617457859
  0
LWPOLYLINE
  5
AD428
102
{ACAD_REACTORS
330
AD4A9
102
}
330
1F
100
AcDbEntity
  8
HI Deatil 2
100
AcDbPolyline
 90
        2
 70
     0
 43
0.0
 10
20.53212171588666
 20
-10.16697033047638
 10
20.56671390401243
 20
-10.19533831633362
  0
LWPOLYLINE
  5
AD429
102
{ACAD_REACTORS
330
AD4A9
102
}
330
1F
100
AcDbEntity
  8
HI Deatil 2
100
AcDbPolyline
 90
        2
 70
     0
 43
0.0
 10
20.66305555957436
 20
-10.16697033047638
 10
20.62759009807674
 20
-10.19558222935081
  0
ARC
  5
AD42A
102
{ACAD_REACTORS
330
AD4A9
102
}
330
1F
100
AcDbEntity
  8
HI Deatil 2
100
AcDbCircle
 10
20.59731162925821
 20
-10.15562001248055
 30
0.0
 40
0.0501374555714761
100
AcDbArc
 50
232.3904809119845
 51
307.1503868481141
  0
LWPOLYLINE
  5
AD42B
102
{ACAD_REACTORS
330
AD4A9
102
}
330
1F
100
AcDbEntity
  8
HI Deatil 2
100
AcDbPolyline
 90
        2
 70
     0
 43
0.0
 10
21.10500353837219
 20
-9.737706921354273
 10
21.13959572649799
 20
-9.709338935497036
  0
LWPOLYLINE
  5
AD42C
102
{ACAD_REACTORS
330
AD4A9
102
}
330
1F
100
AcDbEntity
  8
HI Deatil 2
100
AcDbPolyline
 90
        2
 70
     0
 43
0.0
 10
21.2359373820599
 20
-9.737706921354273
 10
21.20047192056228
 20
-9.709095022479843
  0
ARC
  5
AD42D
102
{ACAD_REACTORS
330
AD4A9
102
}
330
1F
100
AcDbEntity
  8
HI Deatil 2
100
AcDbCircle
 10
21.17019345174376
 20
-9.749057239350108
 30
0.0
 40
0.0501374555714761
100
AcDbArc
 50
52.8496131518858
 51
127.6095190880154
  0
LWPOLYLINE
  5
AD42E
102
{ACAD_REACTORS
330
AD4A9
102
}
330
1F
100
AcDbEntity
  8
HI HATCH FILL
100
AcDbPolyline
 90
        2
 70
     0
 43
0.0
 10
21.16999256730792
 20
-9.810438182303546
 10
21.16999256730792
 20
-10.09533617457859
  0
LWPOLYLINE
  5
AD42F
102
{ACAD_REACTORS
330
AD4A9
102
}
330
1F
100
AcDbEntity
  8
HI Deatil 2
100
AcDbPolyline
 90
        2
 70
     0
 43
0.0
 10
21.1050035383722
 20
-10.16697033047638
 10
21.139595726498
 20
-10.19533831633362
  0
LWPOLYLINE
  5
AD430
102
{ACAD_REACTORS
330
AD4A9
102
}
330
1F
100
AcDbEntity
  8
HI Deatil 2
100
AcDbPolyline
 90
        2
 70
     0
 43
0.0
 10
21.23593738205991
 20
-10.16697033047638
 10
21.2004719205623
 20
-10.19558222935081
  0
ARC
  5
AD431
102
{ACAD_REACTORS
330
AD4A9
102
}
330
1F
100
AcDbEntity
  8
HI Deatil 2
100
AcDbCircle
 10
21.17019345174377
 20
-10.15562001248055
 30
0.0
 40
0.0501374555714761
100
AcDbArc
 50
232.3904809119845
 51
307.1503868481141
  0
CIRCLE
  5
AD432
102
{ACAD_REACTORS
330
AD4A9
102
}
330
1F
100
AcDbEntity
  8
HI HATCH FILL
100
AcDbCircle
 10
20.88355165606512
 20
-9.952887178441063
 30
0.0
 40
0.0477196295443069
  0
LINE
  5
AD434
330
1F
100
AcDbEntity
  8
HI Deatil 2
100
AcDbLine
 10
-0.6688384409979023
 20
-5.747225149524348
 30
0.0
 11
-0.2268904622000605
 21
-5.747225149524348
 31
0.0
  0
LINE
  5
AD435
330
1F
100
AcDbEntity
  8
HI Deatil 2
100
AcDbLine
 10
-0.0959566185123464
 20
-5.747225149524348
 30
0.0
 11
3.940648604330448
 21
-5.747225149524352
 31
0.0
  0
LINE
  5
AD436
330
1F
100
AcDbEntity
  8
HI Deatil 2
100
AcDbLine
 10
4.071582448018148
 20
-5.747225149524352
 30
0.0
 11
4.513530426815989
 21
-5.747225149524352
 31
0.0
  0
LINE
  5
AD437
330
1F
100
AcDbEntity
  8
HI Deatil 2
100
AcDbLine
 10
4.644464270503704
 20
-5.747225149524352
 30
0.0
 11
8.681069493346498
 21
-5.747225149524355
 31
0.0
  0
LINE
  5
AD438
330
1F
100
AcDbEntity
  8
HI Deatil 2
100
AcDbLine
 10
8.812003337034198
 20
-5.747225149524355
 30
0.0
 11
9.25395131583204
 21
-5.747225149524355
 31
0.0
  0
LINE
  5
AD439
330
1F
100
AcDbEntity
  8
HI Deatil 2
100
AcDbLine
 10
9.384885159519754
 20
-5.747225149524355
 30
0.0
 11
13.42149038236255
 21
-5.747225149524359
 31
0.0
  0
LINE
  5
AD43A
330
1F
100
AcDbEntity
  8
HI Deatil 2
100
AcDbLine
 10
13.55242422605025
 20
-5.747225149524359
 30
0.0
 11
13.99437220484809
 21
-5.747225149524359
 31
0.0
  0
LINE
  5
AD43B
330
1F
100
AcDbEntity
  8
HI Deatil 2
100
AcDbLine
 10
14.1253060485358
 20
-5.747225149524359
 30
0.0
 11
18.1619112713786
 21
-5.747225149524362
 31
0.0
  0
LINE
  5
AD43C
330
1F
100
AcDbEntity
  8
HI Deatil 2
100
AcDbLine
 10
18.2928451150663
 20
-5.747225149524362
 30
0.0
 11
18.73479309386414
 21
-5.747225149524362
 31
0.0
  0
LINE
  5
AD43F
330
1F
100
AcDbEntity
  8
HI Deatil 2
100
AcDbLine
 10
-0.6688384409978881
 20
-6.176488558646463
 30
0.0
 11
-0.2268904622000463
 21
-6.176488558646463
 31
0.0
  0
LINE
  5
AD440
330
1F
100
AcDbEntity
  8
HI Deatil 2
100
AcDbLine
 10
-0.0959566185123322
 20
-6.176488558646463
 30
0.0
 11
3.940648604330462
 21
-6.176488558646466
 31
0.0
  0
LINE
  5
AD441
330
1F
100
AcDbEntity
  8
HI Deatil 2
100
AcDbLine
 10
4.071582448018162
 20
-6.176488558646466
 30
0.0
 11
4.513530426816004
 21
-6.176488558646466
 31
0.0
  0
LINE
  5
AD442
330
1F
100
AcDbEntity
  8
HI Deatil 2
100
AcDbLine
 10
4.644464270503718
 20
-6.176488558646466
 30
0.0
 11
8.681069493346512
 21
-6.17648855864647
 31
0.0
  0
LINE
  5
AD443
330
1F
100
AcDbEntity
  8
HI Deatil 2
100
AcDbLine
 10
8.812003337034212
 20
-6.17648855864647
 30
0.0
 11
9.253951315832054
 21
-6.17648855864647
 31
0.0
  0
LINE
  5
AD444
330
1F
100
AcDbEntity
  8
HI Deatil 2
100
AcDbLine
 10
9.384885159519768
 20
-6.17648855864647
 30
0.0
 11
13.42149038236256
 21
-6.176488558646473
 31
0.0
  0
LINE
  5
AD445
330
1F
100
AcDbEntity
  8
HI Deatil 2
100
AcDbLine
 10
13.55242422605026
 20
-6.176488558646473
 30
0.0
 11
13.9943722048481
 21
-6.176488558646473
 31
0.0
  0
LINE
  5
AD446
330
1F
100
AcDbEntity
  8
HI Deatil 2
100
AcDbLine
 10
14.12530604853582
 20
-6.176488558646473
 30
0.0
 11
18.16191127137861
 21
-6.176488558646477
 31
0.0
  0
LINE
  5
AD447
330
1F
100
AcDbEntity
  8
HI Deatil 2
100
AcDbLine
 10
18.29284511506631
 20
-6.176488558646477
 30
0.0
 11
18.73479309386415
 21
-6.176488558646477
 31
0.0
  0
LWPOLYLINE
  5
AD449
102
{ACAD_REACTORS
330
AD4A0
102
}
330
1F
100
AcDbEntity
  8
HI Deatil 2
100
AcDbPolyline
 90
        2
 70
     0
 43
0.0
 10
-0.6688384409979023
 20
-5.747225149524352
 10
-0.2268904622000605
 20
-5.747225149524352
  0
LWPOLYLINE
  5
AD44A
102
{ACAD_REACTORS
330
AD4A0
102
}
330
1F
100
AcDbEntity
  8
HI Deatil 2
100
AcDbPolyline
 90
        2
 70
     0
 43
0.0
 10
-0.6688384409978881
 20
-6.176488558646463
 10
-0.2268904622000463
 20
-6.176488558646463
  0
LWPOLYLINE
  5
AD44B
102
{ACAD_REACTORS
330
AD4A0
102
}
330
1F
100
AcDbEntity
  8
HI Deatil 2
100
AcDbPolyline
 90
        2
 70
     0
 43
0.0
 10
-0.7997722846856022
 20
-5.747225149524352
 10
-0.7651800965598313
 20
-5.718857163667115
  0
LWPOLYLINE
  5
AD44C
102
{ACAD_REACTORS
330
AD4A0
102
}
330
1F
100
AcDbEntity
  8
HI Deatil 2
100
AcDbPolyline
 90
        2
 70
     0
 43
0.0
 10
-0.6688384409979023
 20
-5.747225149524352
 10
-0.7043039024955249
 20
-5.718613250649921
  0
ARC
  5
AD44D
102
{ACAD_REACTORS
330
AD4A0
102
}
330
1F
100
AcDbEntity
  8
HI Deatil 2
100
AcDbCircle
 10
-0.7345823713140476
 20
-5.758575467520186
 30
0.0
 40
0.0501374555714761
100
AcDbArc
 50
52.84961315188581
 51
127.6095190880154
  0
LWPOLYLINE
  5
AD44E
102
{ACAD_REACTORS
330
AD4A0
102
}
330
1F
100
AcDbEntity
  8
HI HATCH FILL
100
AcDbPolyline
 90
        2
 70
     0
 43
0.0
 10
-0.734783255749889
 20
-5.819956410473624
 10
-0.734783255749889
 20
-6.104854402748665
  0
LWPOLYLINE
  5
AD44F
102
{ACAD_REACTORS
330
AD4A0
102
}
330
1F
100
AcDbEntity
  8
HI Deatil 2
100
AcDbPolyline
 90
        2
 70
     0
 43
0.0
 10
-0.799772284685588
 20
-6.176488558646463
 10
-0.765180096559817
 20
-6.2048565445037
  0
LWPOLYLINE
  5
AD450
102
{ACAD_REACTORS
330
AD4A0
102
}
330
1F
100
AcDbEntity
  8
HI Deatil 2
100
AcDbPolyline
 90
        2
 70
     0
 43
0.0
 10
-0.6688384409978881
 20
-6.176488558646463
 10
-0.7043039024955107
 20
-6.205100457520893
  0
ARC
  5
AD451
102
{ACAD_REACTORS
330
AD4A0
102
}
330
1F
100
AcDbEntity
  8
HI Deatil 2
100
AcDbCircle
 10
-0.7345823713140334
 20
-6.165138240650628
 30
0.0
 40
0.0501374555714761
100
AcDbArc
 50
232.3904809119846
 51
307.1503868481142
  0
LWPOLYLINE
  5
AD452
102
{ACAD_REACTORS
330
AD4A0
102
}
330
1F
100
AcDbEntity
  8
HI Deatil 2
100
AcDbPolyline
 90
        2
 70
     0
 43
0.0
 10
-0.2268904622000605
 20
-5.747225149524352
 10
-0.1922982740742611
 20
-5.718857163667115
  0
LWPOLYLINE
  5
AD453
102
{ACAD_REACTORS
330
AD4A0
102
}
330
1F
100
AcDbEntity
  8
HI Deatil 2
100
AcDbPolyline
 90
        2
 70
     0
 43
0.0
 10
-0.0959566185123464
 20
-5.747225149524352
 10
-0.131422080009969
 20
-5.718613250649921
  0
ARC
  5
AD454
102
{ACAD_REACTORS
330
AD4A0
102
}
330
1F
100
AcDbEntity
  8
HI Deatil 2
100
AcDbCircle
 10
-0.1617005488284917
 20
-5.758575467520186
 30
0.0
 40
0.0501374555714761
100
AcDbArc
 50
52.84961315188581
 51
127.6095190880154
  0
LWPOLYLINE
  5
AD455
102
{ACAD_REACTORS
330
AD4A0
102
}
330
1F
100
AcDbEntity
  8
HI HATCH FILL
100
AcDbPolyline
 90
        2
 70
     0
 43
0.0
 10
-0.1619014332643331
 20
-5.819956410473624
 10
-0.1619014332643331
 20
-6.104854402748665
  0
LWPOLYLINE
  5
AD456
102
{ACAD_REACTORS
330
AD4A0
102
}
330
1F
100
AcDbEntity
  8
HI Deatil 2
100
AcDbPolyline
 90
        2
 70
     0
 43
0.0
 10
-0.2268904622000463
 20
-6.176488558646463
 10
-0.1922982740742469
 20
-6.2048565445037
  0
LWPOLYLINE
  5
AD457
102
{ACAD_REACTORS
330
AD4A0
102
}
330
1F
100
AcDbEntity
  8
HI Deatil 2
100
AcDbPolyline
 90
        2
 70
     0
 43
0.0
 10
-0.0959566185123322
 20
-6.176488558646463
 10
-0.1314220800099548
 20
-6.205100457520893
  0
ARC
  5
AD458
102
{ACAD_REACTORS
330
AD4A0
102
}
330
1F
100
AcDbEntity
  8
HI Deatil 2
100
AcDbCircle
 10
-0.1617005488284775
 20
-6.165138240650628
 30
0.0
 40
0.0501374555714761
100
AcDbArc
 50
232.3904809119846
 51
307.1503868481142
  0
CIRCLE
  5
AD459
102
{ACAD_REACTORS
330
AD4A0
102
}
330
1F
100
AcDbEntity
  8
HI HATCH FILL
100
AcDbCircle
 10
-0.4483423445071253
 20
-5.962405406611141
 30
0.0
 40
0.0477196295443069
  0
LWPOLYLINE
  5
AD45A
102
{ACAD_REACTORS
330
AD4A1
102
}
330
1F
100
AcDbEntity
  8
HI Deatil 2
100
AcDbPolyline
 90
        2
 70
     0
 43
0.0
 10
4.071582448018148
 20
-5.747225149524352
 10
4.513530426815989
 20
-5.747225149524352
  0
LWPOLYLINE
  5
AD45B
102
{ACAD_REACTORS
330
AD4A1
102
}
330
1F
100
AcDbEntity
  8
HI Deatil 2
100
AcDbPolyline
 90
        2
 70
     0
 43
0.0
 10
4.071582448018162
 20
-6.176488558646463
 10
4.513530426816004
 20
-6.176488558646463
  0
LWPOLYLINE
  5
AD45C
102
{ACAD_REACTORS
330
AD4A1
102
}
330
1F
100
AcDbEntity
  8
HI Deatil 2
100
AcDbPolyline
 90
        2
 70
     0
 43
0.0
 10
3.940648604330448
 20
-5.747225149524352
 10
3.975240792456219
 20
-5.718857163667115
  0
LWPOLYLINE
  5
AD45D
102
{ACAD_REACTORS
330
AD4A1
102
}
330
1F
100
AcDbEntity
  8
HI Deatil 2
100
AcDbPolyline
 90
        2
 70
     0
 43
0.0
 10
4.071582448018148
 20
-5.747225149524352
 10
4.036116986520525
 20
-5.718613250649921
  0
ARC
  5
AD45E
102
{ACAD_REACTORS
330
AD4A1
102
}
330
1F
100
AcDbEntity
  8
HI Deatil 2
100
AcDbCircle
 10
4.005838517702002
 20
-5.758575467520186
 30
0.0
 40
0.0501374555714761
100
AcDbArc
 50
52.84961315188581
 51
127.6095190880154
  0
LWPOLYLINE
  5
AD45F
102
{ACAD_REACTORS
330
AD4A1
102
}
330
1F
100
AcDbEntity
  8
HI HATCH FILL
100
AcDbPolyline
 90
        2
 70
     0
 43
0.0
 10
4.005637633266161
 20
-5.819956410473624
 10
4.005637633266161
 20
-6.104854402748665
  0
LWPOLYLINE
  5
AD460
102
{ACAD_REACTORS
330
AD4A1
102
}
330
1F
100
AcDbEntity
  8
HI Deatil 2
100
AcDbPolyline
 90
        2
 70
     0
 43
0.0
 10
3.940648604330462
 20
-6.176488558646463
 10
3.975240792456233
 20
-6.2048565445037
  0
LWPOLYLINE
  5
AD461
102
{ACAD_REACTORS
330
AD4A1
102
}
330
1F
100
AcDbEntity
  8
HI Deatil 2
100
AcDbPolyline
 90
        2
 70
     0
 43
0.0
 10
4.071582448018162
 20
-6.176488558646463
 10
4.036116986520539
 20
-6.205100457520893
  0
ARC
  5
AD462
102
{ACAD_REACTORS
330
AD4A1
102
}
330
1F
100
AcDbEntity
  8
HI Deatil 2
100
AcDbCircle
 10
4.005838517702017
 20
-6.165138240650628
 30
0.0
 40
0.0501374555714761
100
AcDbArc
 50
232.3904809119846
 51
307.1503868481142
  0
LWPOLYLINE
  5
AD463
102
{ACAD_REACTORS
330
AD4A1
102
}
330
1F
100
AcDbEntity
  8
HI Deatil 2
100
AcDbPolyline
 90
        2
 70
     0
 43
0.0
 10
4.513530426815989
 20
-5.747225149524352
 10
4.548122614941789
 20
-5.718857163667115
  0
LWPOLYLINE
  5
AD464
102
{ACAD_REACTORS
330
AD4A1
102
}
330
1F
100
AcDbEntity
  8
HI Deatil 2
100
AcDbPolyline
 90
        2
 70
     0
 43
0.0
 10
4.644464270503704
 20
-5.747225149524352
 10
4.608998809006081
 20
-5.718613250649921
  0
ARC
  5
AD465
102
{ACAD_REACTORS
330
AD4A1
102
}
330
1F
100
AcDbEntity
  8
HI Deatil 2
100
AcDbCircle
 10
4.578720340187558
 20
-5.758575467520186
 30
0.0
 40
0.0501374555714761
100
AcDbArc
 50
52.84961315188581
 51
127.6095190880154
  0
LWPOLYLINE
  5
AD466
102
{ACAD_REACTORS
330
AD4A1
102
}
330
1F
100
AcDbEntity
  8
HI HATCH FILL
100
AcDbPolyline
 90
        2
 70
     0
 43
0.0
 10
4.578519455751717
 20
-5.819956410473624
 10
4.578519455751717
 20
-6.104854402748665
  0
LWPOLYLINE
  5
AD467
102
{ACAD_REACTORS
330
AD4A1
102
}
330
1F
100
AcDbEntity
  8
HI Deatil 2
100
AcDbPolyline
 90
        2
 70
     0
 43
0.0
 10
4.513530426816004
 20
-6.176488558646463
 10
4.548122614941803
 20
-6.2048565445037
  0
LWPOLYLINE
  5
AD468
102
{ACAD_REACTORS
330
AD4A1
102
}
330
1F
100
AcDbEntity
  8
HI Deatil 2
100
AcDbPolyline
 90
        2
 70
     0
 43
0.0
 10
4.644464270503718
 20
-6.176488558646463
 10
4.608998809006095
 20
-6.205100457520893
  0
ARC
  5
AD469
102
{ACAD_REACTORS
330
AD4A1
102
}
330
1F
100
AcDbEntity
  8
HI Deatil 2
100
AcDbCircle
 10
4.578720340187572
 20
-6.165138240650628
 30
0.0
 40
0.0501374555714761
100
AcDbArc
 50
232.3904809119846
 51
307.1503868481142
  0
CIRCLE
  5
AD46A
102
{ACAD_REACTORS
330
AD4A1
102
}
330
1F
100
AcDbEntity
  8
HI HATCH FILL
100
AcDbCircle
 10
4.292078544508925
 20
-5.962405406611141
 30
0.0
 40
0.0477196295443069
  0
LWPOLYLINE
  5
AD46B
102
{ACAD_REACTORS
330
AD4A2
102
}
330
1F
100
AcDbEntity
  8
HI Deatil 2
100
AcDbPolyline
 90
        2
 70
     0
 43
0.0
 10
8.812003337034198
 20
-5.747225149524355
 10
9.25395131583204
 20
-5.747225149524355
  0
LWPOLYLINE
  5
AD46C
102
{ACAD_REACTORS
330
AD4A2
102
}
330
1F
100
AcDbEntity
  8
HI Deatil 2
100
AcDbPolyline
 90
        2
 70
     0
 43
0.0
 10
8.812003337034212
 20
-6.176488558646466
 10
9.253951315832054
 20
-6.176488558646466
  0
LWPOLYLINE
  5
AD46D
102
{ACAD_REACTORS
330
AD4A2
102
}
330
1F
100
AcDbEntity
  8
HI Deatil 2
100
AcDbPolyline
 90
        2
 70
     0
 43
0.0
 10
8.681069493346498
 20
-5.747225149524355
 10
8.715661681472269
 20
-5.718857163667118
  0
LWPOLYLINE
  5
AD46E
102
{ACAD_REACTORS
330
AD4A2
102
}
330
1F
100
AcDbEntity
  8
HI Deatil 2
100
AcDbPolyline
 90
        2
 70
     0
 43
0.0
 10
8.812003337034198
 20
-5.747225149524355
 10
8.776537875536575
 20
-5.718613250649925
  0
ARC
  5
AD46F
102
{ACAD_REACTORS
330
AD4A2
102
}
330
1F
100
AcDbEntity
  8
HI Deatil 2
100
AcDbCircle
 10
8.746259406718053
 20
-5.75857546752019
 30
0.0
 40
0.0501374555714761
100
AcDbArc
 50
52.84961315188581
 51
127.6095190880154
  0
LWPOLYLINE
  5
AD470
102
{ACAD_REACTORS
330
AD4A2
102
}
330
1F
100
AcDbEntity
  8
HI HATCH FILL
100
AcDbPolyline
 90
        2
 70
     0
 43
0.0
 10
8.746058522282211
 20
-5.819956410473627
 10
8.746058522282211
 20
-6.104854402748669
  0
LWPOLYLINE
  5
AD471
102
{ACAD_REACTORS
330
AD4A2
102
}
330
1F
100
AcDbEntity
  8
HI Deatil 2
100
AcDbPolyline
 90
        2
 70
     0
 43
0.0
 10
8.681069493346512
 20
-6.176488558646466
 10
8.715661681472283
 20
-6.204856544503703
  0
LWPOLYLINE
  5
AD472
102
{ACAD_REACTORS
330
AD4A2
102
}
330
1F
100
AcDbEntity
  8
HI Deatil 2
100
AcDbPolyline
 90
        2
 70
     0
 43
0.0
 10
8.812003337034212
 20
-6.176488558646466
 10
8.77653787553659
 20
-6.205100457520897
  0
ARC
  5
AD473
102
{ACAD_REACTORS
330
AD4A2
102
}
330
1F
100
AcDbEntity
  8
HI Deatil 2
100
AcDbCircle
 10
8.746259406718067
 20
-6.165138240650632
 30
0.0
 40
0.0501374555714761
100
AcDbArc
 50
232.3904809119846
 51
307.1503868481142
  0
LWPOLYLINE
  5
AD474
102
{ACAD_REACTORS
330
AD4A2
102
}
330
1F
100
AcDbEntity
  8
HI Deatil 2
100
AcDbPolyline
 90
        2
 70
     0
 43
0.0
 10
9.25395131583204
 20
-5.747225149524355
 10
9.288543503957839
 20
-5.718857163667118
  0
LWPOLYLINE
  5
AD475
102
{ACAD_REACTORS
330
AD4A2
102
}
330
1F
100
AcDbEntity
  8
HI Deatil 2
100
AcDbPolyline
 90
        2
 70
     0
 43
0.0
 10
9.384885159519754
 20
-5.747225149524355
 10
9.349419698022131
 20
-5.718613250649925
  0
ARC
  5
AD476
102
{ACAD_REACTORS
330
AD4A2
102
}
330
1F
100
AcDbEntity
  8
HI Deatil 2
100
AcDbCircle
 10
9.319141229203609
 20
-5.75857546752019
 30
0.0
 40
0.0501374555714761
100
AcDbArc
 50
52.84961315188581
 51
127.6095190880154
  0
LWPOLYLINE
  5
AD477
102
{ACAD_REACTORS
330
AD4A2
102
}
330
1F
100
AcDbEntity
  8
HI HATCH FILL
100
AcDbPolyline
 90
        2
 70
     0
 43
0.0
 10
9.318940344767767
 20
-5.819956410473627
 10
9.318940344767767
 20
-6.104854402748669
  0
LWPOLYLINE
  5
AD478
102
{ACAD_REACTORS
330
AD4A2
102
}
330
1F
100
AcDbEntity
  8
HI Deatil 2
100
AcDbPolyline
 90
        2
 70
     0
 43
0.0
 10
9.253951315832054
 20
-6.176488558646466
 10
9.288543503957853
 20
-6.204856544503703
  0
LWPOLYLINE
  5
AD479
102
{ACAD_REACTORS
330
AD4A2
102
}
330
1F
100
AcDbEntity
  8
HI Deatil 2
100
AcDbPolyline
 90
        2
 70
     0
 43
0.0
 10
9.384885159519768
 20
-6.176488558646466
 10
9.349419698022146
 20
-6.205100457520897
  0
ARC
  5
AD47A
102
{ACAD_REACTORS
330
AD4A2
102
}
330
1F
100
AcDbEntity
  8
HI Deatil 2
100
AcDbCircle
 10
9.319141229203623
 20
-6.165138240650632
 30
0.0
 40
0.0501374555714761
100
AcDbArc
 50
232.3904809119846
 51
307.1503868481142
  0
CIRCLE
  5
AD47B
102
{ACAD_REACTORS
330
AD4A2
102
}
330
1F
100
AcDbEntity
  8
HI HATCH FILL
100
AcDbCircle
 10
9.032499433524975
 20
-5.962405406611145
 30
0.0
 40
0.0477196295443069
  0
LWPOLYLINE
  5
AD47C
102
{ACAD_REACTORS
330
AD4A3
102
}
330
1F
100
AcDbEntity
  8
HI Deatil 2
100
AcDbPolyline
 90
        2
 70
     0
 43
0.0
 10
13.55242422605025
 20
-5.747225149524359
 10
13.99437220484809
 20
-5.747225149524359
  0
LWPOLYLINE
  5
AD47D
102
{ACAD_REACTORS
330
AD4A3
102
}
330
1F
100
AcDbEntity
  8
HI Deatil 2
100
AcDbPolyline
 90
        2
 70
     0
 43
0.0
 10
13.55242422605026
 20
-6.17648855864647
 10
13.9943722048481
 20
-6.17648855864647
  0
LWPOLYLINE
  5
AD47E
102
{ACAD_REACTORS
330
AD4A3
102
}
330
1F
100
AcDbEntity
  8
HI Deatil 2
100
AcDbPolyline
 90
        2
 70
     0
 43
0.0
 10
13.42149038236255
 20
-5.747225149524359
 10
13.45608257048832
 20
-5.718857163667122
  0
LWPOLYLINE
  5
AD47F
102
{ACAD_REACTORS
330
AD4A3
102
}
330
1F
100
AcDbEntity
  8
HI Deatil 2
100
AcDbPolyline
 90
        2
 70
     0
 43
0.0
 10
13.55242422605025
 20
-5.747225149524359
 10
13.51695876455262
 20
-5.718613250649928
  0
ARC
  5
AD480
102
{ACAD_REACTORS
330
AD4A3
102
}
330
1F
100
AcDbEntity
  8
HI Deatil 2
100
AcDbCircle
 10
13.4866802957341
 20
-5.758575467520193
 30
0.0
 40
0.0501374555714761
100
AcDbArc
 50
52.84961315188581
 51
127.6095190880154
  0
LWPOLYLINE
  5
AD481
102
{ACAD_REACTORS
330
AD4A3
102
}
330
1F
100
AcDbEntity
  8
HI HATCH FILL
100
AcDbPolyline
 90
        2
 70
     0
 43
0.0
 10
13.48647941129826
 20
-5.819956410473631
 10
13.48647941129826
 20
-6.104854402748673
  0
LWPOLYLINE
  5
AD482
102
{ACAD_REACTORS
330
AD4A3
102
}
330
1F
100
AcDbEntity
  8
HI Deatil 2
100
AcDbPolyline
 90
        2
 70
     0
 43
0.0
 10
13.42149038236256
 20
-6.17648855864647
 10
13.45608257048833
 20
-6.204856544503707
  0
LWPOLYLINE
  5
AD483
102
{ACAD_REACTORS
330
AD4A3
102
}
330
1F
100
AcDbEntity
  8
HI Deatil 2
100
AcDbPolyline
 90
        2
 70
     0
 43
0.0
 10
13.55242422605026
 20
-6.17648855864647
 10
13.51695876455264
 20
-6.205100457520901
  0
ARC
  5
AD484
102
{ACAD_REACTORS
330
AD4A3
102
}
330
1F
100
AcDbEntity
  8
HI Deatil 2
100
AcDbCircle
 10
13.48668029573412
 20
-6.165138240650636
 30
0.0
 40
0.0501374555714761
100
AcDbArc
 50
232.3904809119845
 51
307.1503868481141
  0
LWPOLYLINE
  5
AD485
102
{ACAD_REACTORS
330
AD4A3
102
}
330
1F
100
AcDbEntity
  8
HI Deatil 2
100
AcDbPolyline
 90
        2
 70
     0
 43
0.0
 10
13.99437220484809
 20
-5.747225149524359
 10
14.02896439297389
 20
-5.718857163667122
  0
LWPOLYLINE
  5
AD486
102
{ACAD_REACTORS
330
AD4A3
102
}
330
1F
100
AcDbEntity
  8
HI Deatil 2
100
AcDbPolyline
 90
        2
 70
     0
 43
0.0
 10
14.1253060485358
 20
-5.747225149524359
 10
14.08984058703818
 20
-5.718613250649928
  0
ARC
  5
AD487
102
{ACAD_REACTORS
330
AD4A3
102
}
330
1F
100
AcDbEntity
  8
HI Deatil 2
100
AcDbCircle
 10
14.05956211821966
 20
-5.758575467520193
 30
0.0
 40
0.0501374555714761
100
AcDbArc
 50
52.84961315188581
 51
127.6095190880154
  0
LWPOLYLINE
  5
AD488
102
{ACAD_REACTORS
330
AD4A3
102
}
330
1F
100
AcDbEntity
  8
HI HATCH FILL
100
AcDbPolyline
 90
        2
 70
     0
 43
0.0
 10
14.05936123378381
 20
-5.819956410473631
 10
14.05936123378381
 20
-6.104854402748673
  0
LWPOLYLINE
  5
AD489
102
{ACAD_REACTORS
330
AD4A3
102
}
330
1F
100
AcDbEntity
  8
HI Deatil 2
100
AcDbPolyline
 90
        2
 70
     0
 43
0.0
 10
13.9943722048481
 20
-6.17648855864647
 10
14.0289643929739
 20
-6.204856544503707
  0
LWPOLYLINE
  5
AD48A
102
{ACAD_REACTORS
330
AD4A3
102
}
330
1F
100
AcDbEntity
  8
HI Deatil 2
100
AcDbPolyline
 90
        2
 70
     0
 43
0.0
 10
14.12530604853582
 20
-6.17648855864647
 10
14.08984058703819
 20
-6.205100457520901
  0
ARC
  5
AD48B
102
{ACAD_REACTORS
330
AD4A3
102
}
330
1F
100
AcDbEntity
  8
HI Deatil 2
100
AcDbCircle
 10
14.05956211821967
 20
-6.165138240650636
 30
0.0
 40
0.0501374555714761
100
AcDbArc
 50
232.3904809119845
 51
307.1503868481141
  0
CIRCLE
  5
AD48C
102
{ACAD_REACTORS
330
AD4A3
102
}
330
1F
100
AcDbEntity
  8
HI HATCH FILL
100
AcDbCircle
 10
13.77292032254102
 20
-5.962405406611148
 30
0.0
 40
0.0477196295443069
  0
LWPOLYLINE
  5
AD48D
102
{ACAD_REACTORS
330
AD4A4
102
}
330
1F
100
AcDbEntity
  8
HI Deatil 2
100
AcDbPolyline
 90
        2
 70
     0
 43
0.0
 10
18.2928451150663
 20
-5.747225149524362
 10
18.73479309386414
 20
-5.747225149524362
  0
LWPOLYLINE
  5
AD48E
102
{ACAD_REACTORS
330
AD4A4
102
}
330
1F
100
AcDbEntity
  8
HI Deatil 2
100
AcDbPolyline
 90
        2
 70
     0
 43
0.0
 10
18.29284511506631
 20
-6.176488558646473
 10
18.73479309386415
 20
-6.176488558646473
  0
LWPOLYLINE
  5
AD48F
102
{ACAD_REACTORS
330
AD4A4
102
}
330
1F
100
AcDbEntity
  8
HI Deatil 2
100
AcDbPolyline
 90
        2
 70
     0
 43
0.0
 10
18.1619112713786
 20
-5.747225149524362
 10
18.19650345950437
 20
-5.718857163667125
  0
LWPOLYLINE
  5
AD490
102
{ACAD_REACTORS
330
AD4A4
102
}
330
1F
100
AcDbEntity
  8
HI Deatil 2
100
AcDbPolyline
 90
        2
 70
     0
 43
0.0
 10
18.2928451150663
 20
-5.747225149524362
 10
18.25737965356868
 20
-5.718613250649932
  0
ARC
  5
AD491
102
{ACAD_REACTORS
330
AD4A4
102
}
330
1F
100
AcDbEntity
  8
HI Deatil 2
100
AcDbCircle
 10
18.22710118475015
 20
-5.758575467520197
 30
0.0
 40
0.0501374555714761
100
AcDbArc
 50
52.84961315188581
 51
127.6095190880154
  0
LWPOLYLINE
  5
AD492
102
{ACAD_REACTORS
330
AD4A4
102
}
330
1F
100
AcDbEntity
  8
HI HATCH FILL
100
AcDbPolyline
 90
        2
 70
     0
 43
0.0
 10
18.22690030031431
 20
-5.819956410473634
 10
18.22690030031431
 20
-6.104854402748676
  0
LWPOLYLINE
  5
AD493
102
{ACAD_REACTORS
330
AD4A4
102
}
330
1F
100
AcDbEntity
  8
HI Deatil 2
100
AcDbPolyline
 90
        2
 70
     0
 43
0.0
 10
18.16191127137861
 20
-6.176488558646473
 10
18.19650345950438
 20
-6.20485654450371
  0
LWPOLYLINE
  5
AD494
102
{ACAD_REACTORS
330
AD4A4
102
}
330
1F
100
AcDbEntity
  8
HI Deatil 2
100
AcDbPolyline
 90
        2
 70
     0
 43
0.0
 10
18.29284511506631
 20
-6.176488558646473
 10
18.25737965356869
 20
-6.205100457520904
  0
ARC
  5
AD495
102
{ACAD_REACTORS
330
AD4A4
102
}
330
1F
100
AcDbEntity
  8
HI Deatil 2
100
AcDbCircle
 10
18.22710118475017
 20
-6.165138240650639
 30
0.0
 40
0.0501374555714761
100
AcDbArc
 50
232.3904809119845
 51
307.1503868481141
  0
LWPOLYLINE
  5
AD496
102
{ACAD_REACTORS
330
AD4A4
102
}
330
1F
100
AcDbEntity
  8
HI Deatil 2
100
AcDbPolyline
 90
        2
 70
     0
 43
0.0
 10
18.73479309386414
 20
-5.747225149524362
 10
18.76938528198994
 20
-5.718857163667125
  0
LWPOLYLINE
  5
AD497
102
{ACAD_REACTORS
330
AD4A4
102
}
330
1F
100
AcDbEntity
  8
HI Deatil 2
100
AcDbPolyline
 90
        2
 70
     0
 43
0.0
 10
18.86572693755185
 20
-5.747225149524362
 10
18.83026147605423
 20
-5.718613250649932
  0
ARC
  5
AD498
102
{ACAD_REACTORS
330
AD4A4
102
}
330
1F
100
AcDbEntity
  8
HI Deatil 2
100
AcDbCircle
 10
18.79998300723571
 20
-5.758575467520197
 30
0.0
 40
0.0501374555714761
100
AcDbArc
 50
52.84961315188581
 51
127.6095190880154
  0
LWPOLYLINE
  5
AD499
102
{ACAD_REACTORS
330
AD4A4
102
}
330
1F
100
AcDbEntity
  8
HI HATCH FILL
100
AcDbPolyline
 90
        2
 70
     0
 43
0.0
 10
18.79978212279987
 20
-5.819956410473634
 10
18.79978212279987
 20
-6.104854402748676
  0
LWPOLYLINE
  5
AD49A
102
{ACAD_REACTORS
330
AD4A4
102
}
330
1F
100
AcDbEntity
  8
HI Deatil 2
100
AcDbPolyline
 90
        2
 70
     0
 43
0.0
 10
18.73479309386415
 20
-6.176488558646473
 10
18.76938528198995
 20
-6.20485654450371
  0
LWPOLYLINE
  5
AD49B
102
{ACAD_REACTORS
330
AD4A4
102
}
330
1F
100
AcDbEntity
  8
HI Deatil 2
100
AcDbPolyline
 90
        2
 70
     0
 43
0.0
 10
18.86572693755187
 20
-6.176488558646473
 10
18.83026147605425
 20
-6.205100457520904
  0
ARC
  5
AD49C
102
{ACAD_REACTORS
330
AD4A4
102
}
330
1F
100
AcDbEntity
  8
HI Deatil 2
100
AcDbCircle
 10
18.79998300723572
 20
-6.165138240650639
 30
0.0
 40
0.0501374555714761
100
AcDbArc
 50
232.3904809119845
 51
307.1503868481141
  0
CIRCLE
  5
AD49D
102
{ACAD_REACTORS
330
AD4A4
102
}
330
1F
100
AcDbEntity
  8
HI HATCH FILL
100
AcDbCircle
 10
18.51334121155707
 20
-5.962405406611152
 30
0.0
 40
0.0477196295443069
  0
LWPOLYLINE
  5
AD4B2
330
1F
100
AcDbEntity
  8
HI Deatil 1
100
AcDbPolyline
 90
        9
 70
     0
 43
0.0
 10
-3.600256487437735
 20
-13.25706441110392
 10
-3.600256487437732
 20
-9.909233782165763
 10
-2.454897492348351
 20
-8.948163471820691
 10
-3.600256487437718
 20
-7.987093161475627
 10
-4.322034307462899
 20
-7.381449658900557
 10
-4.745615482527085
 20
-7.026022851130562
 10
-3.600256487437718
 20
-6.06495254078549
 10
-3.600256487437718
 20
-5.750750801259265
 10
-3.600256487437715
 20
-2.717121911847329
  0
LINE
  5
AD4B4
330
1F
100
AcDbEntity
  8
HI Deatil 2
100
AcDbLine
 10
-3.039048885505906
 20
-9.737706921354259
 30
0.0
 11
-2.597100906708064
 21
-9.737706921354259
 31
0.0
  0
LINE
  5
AD4B5
330
1F
100
AcDbEntity
  8
HI Deatil 2
100
AcDbLine
 10
-2.46616706302035
 20
-9.737706921354259
 30
0.0
 11
1.570438159822444
 21
-9.737706921354263
 31
0.0
  0
LINE
  5
AD4B6
330
1F
100
AcDbEntity
  8
HI Deatil 2
100
AcDbLine
 10
-3.039048885505891
 20
-10.16697033047637
 30
0.0
 11
-2.59710090670805
 21
-10.16697033047637
 31
0.0
  0
LINE
  5
AD4B7
330
1F
100
AcDbEntity
  8
HI Deatil 2
100
AcDbLine
 10
-2.466167063020336
 20
-10.16697033047637
 30
0.0
 11
1.570438159822458
 21
-10.16697033047638
 31
0.0
  0
LWPOLYLINE
  5
AD4B8
102
{ACAD_REACTORS
330
AD4C9
102
}
330
1F
100
AcDbEntity
  8
HI Deatil 2
100
AcDbPolyline
 90
        2
 70
     0
 43
0.0
 10
-3.039048885505906
 20
-9.737706921354263
 10
-2.597100906708064
 20
-9.737706921354263
  0
LWPOLYLINE
  5
AD4B9
102
{ACAD_REACTORS
330
AD4C9
102
}
330
1F
100
AcDbEntity
  8
HI Deatil 2
100
AcDbPolyline
 90
        2
 70
     0
 43
0.0
 10
-3.039048885505891
 20
-10.16697033047637
 10
-2.59710090670805
 20
-10.16697033047637
  0
LWPOLYLINE
  5
AD4BA
102
{ACAD_REACTORS
330
AD4C9
102
}
330
1F
100
AcDbEntity
  8
HI Deatil 2
100
AcDbPolyline
 90
        2
 70
     0
 43
0.0
 10
-3.169982729193606
 20
-9.737706921354263
 10
-3.135390541067835
 20
-9.709338935497026
  0
LWPOLYLINE
  5
AD4BB
102
{ACAD_REACTORS
330
AD4C9
102
}
330
1F
100
AcDbEntity
  8
HI Deatil 2
100
AcDbPolyline
 90
        2
 70
     0
 43
0.0
 10
-3.039048885505906
 20
-9.737706921354263
 10
-3.074514347003528
 20
-9.709095022479832
  0
ARC
  5
AD4BC
102
{ACAD_REACTORS
330
AD4C9
102
}
330
1F
100
AcDbEntity
  8
HI Deatil 2
100
AcDbCircle
 10
-3.104792815822051
 20
-9.749057239350097
 30
0.0
 40
0.0501374555714761
100
AcDbArc
 50
52.8496131518858
 51
127.6095190880154
  0
LWPOLYLINE
  5
AD4BD
102
{ACAD_REACTORS
330
AD4C9
102
}
330
1F
100
AcDbEntity
  8
HI HATCH FILL
100
AcDbPolyline
 90
        2
 70
     0
 43
0.0
 10
-3.104993700257892
 20
-9.810438182303535
 10
-3.104993700257892
 20
-10.09533617457857
  0
LWPOLYLINE
  5
AD4BE
102
{ACAD_REACTORS
330
AD4C9
102
}
330
1F
100
AcDbEntity
  8
HI Deatil 2
100
AcDbPolyline
 90
        2
 70
     0
 43
0.0
 10
-3.169982729193591
 20
-10.16697033047637
 10
-3.13539054106782
 20
-10.19533831633361
  0
LWPOLYLINE
  5
AD4BF
102
{ACAD_REACTORS
330
AD4C9
102
}
330
1F
100
AcDbEntity
  8
HI Deatil 2
100
AcDbPolyline
 90
        2
 70
     0
 43
0.0
 10
-3.039048885505891
 20
-10.16697033047637
 10
-3.074514347003514
 20
-10.1955822293508
  0
ARC
  5
AD4C0
102
{ACAD_REACTORS
330
AD4C9
102
}
330
1F
100
AcDbEntity
  8
HI Deatil 2
100
AcDbCircle
 10
-3.104792815822037
 20
-10.15562001248054
 30
0.0
 40
0.0501374555714761
100
AcDbArc
 50
232.3904809119845
 51
307.1503868481142
  0
LWPOLYLINE
  5
AD4C1
102
{ACAD_REACTORS
330
AD4C9
102
}
330
1F
100
AcDbEntity
  8
HI Deatil 2
100
AcDbPolyline
 90
        2
 70
     0
 43
0.0
 10
-2.597100906708064
 20
-9.737706921354263
 10
-2.562508718582265
 20
-9.709338935497026
  0
LWPOLYLINE
  5
AD4C2
102
{ACAD_REACTORS
330
AD4C9
102
}
330
1F
100
AcDbEntity
  8
HI Deatil 2
100
AcDbPolyline
 90
        2
 70
     0
 43
0.0
 10
-2.46616706302035
 20
-9.737706921354263
 10
-2.501632524517972
 20
-9.709095022479832
  0
ARC
  5
AD4C3
102
{ACAD_REACTORS
330
AD4C9
102
}
330
1F
100
AcDbEntity
  8
HI Deatil 2
100
AcDbCircle
 10
-2.531910993336495
 20
-9.749057239350097
 30
0.0
 40
0.0501374555714761
100
AcDbArc
 50
52.8496131518858
 51
127.6095190880154
  0
LWPOLYLINE
  5
AD4C4
102
{ACAD_REACTORS
330
AD4C9
102
}
330
1F
100
AcDbEntity
  8
HI HATCH FILL
100
AcDbPolyline
 90
        2
 70
     0
 43
0.0
 10
-2.532111877772337
 20
-9.810438182303535
 10
-2.532111877772337
 20
-10.09533617457857
  0
LWPOLYLINE
  5
AD4C5
102
{ACAD_REACTORS
330
AD4C9
102
}
330
1F
100
AcDbEntity
  8
HI Deatil 2
100
AcDbPolyline
 90
        2
 70
     0
 43
0.0
 10
-2.59710090670805
 20
-10.16697033047637
 10
-2.56250871858225
 20
-10.19533831633361
  0
LWPOLYLINE
  5
AD4C6
102
{ACAD_REACTORS
330
AD4C9
102
}
330
1F
100
AcDbEntity
  8
HI Deatil 2
100
AcDbPolyline
 90
        2
 70
     0
 43
0.0
 10
-2.466167063020336
 20
-10.16697033047637
 10
-2.501632524517958
 20
-10.1955822293508
  0
ARC
  5
AD4C7
102
{ACAD_REACTORS
330
AD4C9
102
}
330
1F
100
AcDbEntity
  8
HI Deatil 2
100
AcDbCircle
 10
-2.531910993336481
 20
-10.15562001248054
 30
0.0
 40
0.0501374555714761
100
AcDbArc
 50
232.3904809119845
 51
307.1503868481142
  0
CIRCLE
  5
AD4C8
102
{ACAD_REACTORS
330
AD4C9
102
}
330
1F
100
AcDbEntity
  8
HI HATCH FILL
100
AcDbCircle
 10
-2.818552789015129
 20
-9.952887178441052
 30
0.0
 40
0.0477196295443069
  0
LINE
  5
AD4CB
330
1F
100
AcDbEntity
  8
HI Deatil 2
100
AcDbLine
 10
-3.600256487437718
 20
-5.747225149524349
 30
0.0
 11
-0.7997722846856022
 21
-5.747225149524352
 31
0.0
  0
LINE
  5
AD4CD
330
1F
100
AcDbEntity
  8
HI Deatil 2
100
AcDbLine
 10
-3.733179937427185
 20
-6.176488558646464
 30
0.0
 11
-0.799772284685588
 21
-6.176488558646466
 31
0.0
  0
LINE
  5
AD4E0
330
1F
100
AcDbEntity
  8
HI Deatil 2
100
AcDbLine
 10
21.2359373820599
 20
-9.737706921354273
 30
0.0
 11
25.2725426049027
 21
-9.737706921354277
 31
0.0
  0
LINE
  5
AD4E1
330
1F
100
AcDbEntity
  8
HI Deatil 2
100
AcDbLine
 10
25.4034764485904
 20
-9.737706921354277
 30
0.0
 11
25.84542442738824
 21
-9.737706921354277
 31
0.0
  0
LINE
  5
AD4E2
330
1F
100
AcDbEntity
  8
HI Deatil 2
100
AcDbLine
 10
21.23593738205991
 20
-10.16697033047639
 30
0.0
 11
25.27254260490271
 21
-10.16697033047639
 31
0.0
  0
LINE
  5
AD4E3
330
1F
100
AcDbEntity
  8
HI Deatil 2
100
AcDbLine
 10
25.40347644859041
 20
-10.16697033047639
 30
0.0
 11
25.84542442738825
 21
-10.16697033047639
 31
0.0
  0
LWPOLYLINE
  5
AD4E4
102
{ACAD_REACTORS
330
AD4F5
102
}
330
1F
100
AcDbEntity
  8
HI Deatil 2
100
AcDbPolyline
 90
        2
 70
     0
 43
0.0
 10
25.4034764485904
 20
-9.737706921354277
 10
25.84542442738824
 20
-9.737706921354277
  0
LWPOLYLINE
  5
AD4E5
102
{ACAD_REACTORS
330
AD4F5
102
}
330
1F
100
AcDbEntity
  8
HI Deatil 2
100
AcDbPolyline
 90
        2
 70
     0
 43
0.0
 10
25.40347644859041
 20
-10.16697033047639
 10
25.84542442738825
 20
-10.16697033047639
  0
LWPOLYLINE
  5
AD4E6
102
{ACAD_REACTORS
330
AD4F5
102
}
330
1F
100
AcDbEntity
  8
HI Deatil 2
100
AcDbPolyline
 90
        2
 70
     0
 43
0.0
 10
25.2725426049027
 20
-9.737706921354277
 10
25.30713479302847
 20
-9.70933893549704
  0
LWPOLYLINE
  5
AD4E7
102
{ACAD_REACTORS
330
AD4F5
102
}
330
1F
100
AcDbEntity
  8
HI Deatil 2
100
AcDbPolyline
 90
        2
 70
     0
 43
0.0
 10
25.4034764485904
 20
-9.737706921354277
 10
25.36801098709278
 20
-9.709095022479846
  0
ARC
  5
AD4E8
102
{ACAD_REACTORS
330
AD4F5
102
}
330
1F
100
AcDbEntity
  8
HI Deatil 2
100
AcDbCircle
 10
25.33773251827425
 20
-9.749057239350111
 30
0.0
 40
0.0501374555714761
100
AcDbArc
 50
52.8496131518858
 51
127.6095190880154
  0
LWPOLYLINE
  5
AD4E9
102
{ACAD_REACTORS
330
AD4F5
102
}
330
1F
100
AcDbEntity
  8
HI HATCH FILL
100
AcDbPolyline
 90
        2
 70
     0
 43
0.0
 10
25.33753163383841
 20
-9.810438182303549
 10
25.33753163383841
 20
-10.09533617457859
  0
LWPOLYLINE
  5
AD4EA
102
{ACAD_REACTORS
330
AD4F5
102
}
330
1F
100
AcDbEntity
  8
HI Deatil 2
100
AcDbPolyline
 90
        2
 70
     0
 43
0.0
 10
25.27254260490271
 20
-10.16697033047639
 10
25.30713479302848
 20
-10.19533831633362
  0
LWPOLYLINE
  5
AD4EB
102
{ACAD_REACTORS
330
AD4F5
102
}
330
1F
100
AcDbEntity
  8
HI Deatil 2
100
AcDbPolyline
 90
        2
 70
     0
 43
0.0
 10
25.40347644859041
 20
-10.16697033047639
 10
25.36801098709279
 20
-10.19558222935082
  0
ARC
  5
AD4EC
102
{ACAD_REACTORS
330
AD4F5
102
}
330
1F
100
AcDbEntity
  8
HI Deatil 2
100
AcDbCircle
 10
25.33773251827426
 20
-10.15562001248055
 30
0.0
 40
0.0501374555714761
100
AcDbArc
 50
232.3904809119845
 51
307.1503868481141
  0
LWPOLYLINE
  5
AD4ED
102
{ACAD_REACTORS
330
AD4F5
102
}
330
1F
100
AcDbEntity
  8
HI Deatil 2
100
AcDbPolyline
 90
        2
 70
     0
 43
0.0
 10
25.84542442738824
 20
-9.737706921354277
 10
25.88001661551404
 20
-9.70933893549704
  0
LWPOLYLINE
  5
AD4EE
102
{ACAD_REACTORS
330
AD4F5
102
}
330
1F
100
AcDbEntity
  8
HI Deatil 2
100
AcDbPolyline
 90
        2
 70
     0
 43
0.0
 10
25.97635827107595
 20
-9.737706921354277
 10
25.94089280957833
 20
-9.709095022479846
  0
ARC
  5
AD4EF
102
{ACAD_REACTORS
330
AD4F5
102
}
330
1F
100
AcDbEntity
  8
HI Deatil 2
100
AcDbCircle
 10
25.91061434075981
 20
-9.749057239350111
 30
0.0
 40
0.0501374555714761
100
AcDbArc
 50
52.8496131518858
 51
127.6095190880154
  0
LWPOLYLINE
  5
AD4F0
102
{ACAD_REACTORS
330
AD4F5
102
}
330
1F
100
AcDbEntity
  8
HI HATCH FILL
100
AcDbPolyline
 90
        2
 70
     0
 43
0.0
 10
25.91041345632397
 20
-9.810438182303549
 10
25.91041345632397
 20
-10.09533617457859
  0
LWPOLYLINE
  5
AD4F1
102
{ACAD_REACTORS
330
AD4F5
102
}
330
1F
100
AcDbEntity
  8
HI Deatil 2
100
AcDbPolyline
 90
        2
 70
     0
 43
0.0
 10
25.84542442738825
 20
-10.16697033047639
 10
25.88001661551405
 20
-10.19533831633362
  0
LWPOLYLINE
  5
AD4F2
102
{ACAD_REACTORS
330
AD4F5
102
}
330
1F
100
AcDbEntity
  8
HI Deatil 2
100
AcDbPolyline
 90
        2
 70
     0
 43
0.0
 10
25.97635827107597
 20
-10.16697033047639
 10
25.94089280957835
 20
-10.19558222935082
  0
ARC
  5
AD4F3
102
{ACAD_REACTORS
330
AD4F5
102
}
330
1F
100
AcDbEntity
  8
HI Deatil 2
100
AcDbCircle
 10
25.91061434075982
 20
-10.15562001248055
 30
0.0
 40
0.0501374555714761
100
AcDbArc
 50
232.3904809119845
 51
307.1503868481141
  0
CIRCLE
  5
AD4F4
102
{ACAD_REACTORS
330
AD4F5
102
}
330
1F
100
AcDbEntity
  8
HI HATCH FILL
100
AcDbCircle
 10
25.62397254508117
 20
-9.952887178441066
 30
0.0
 40
0.0477196295443069
  0
LINE
  5
AD4F6
330
1F
100
AcDbEntity
  8
HI Deatil 2
100
AcDbLine
 10
25.97635827107595
 20
-9.737706921354277
 30
0.0
 11
28.34436664768622
 21
-9.737706921354279
 31
0.0
  0
LINE
  5
AD4F8
330
1F
100
AcDbEntity
  8
HI Deatil 2
100
AcDbLine
 10
25.97635827107597
 20
-10.16697033047639
 30
0.0
 11
28.13994889508773
 21
-10.16697033047639
 31
0.0
  0
LWPOLYLINE
  5
AD538
330
1F
100
AcDbEntity
  8
HI Deatil 1
100
AcDbPolyline
 90
        9
 70
     0
 43
0.0
 10
28.13994889508773
 20
-13.25706441110392
 10
28.13994889508773
 20
-9.909233782165763
 10
29.28530789017711
 20
-8.948163471820691
 10
28.13994889508774
 20
-7.987093161475627
 10
27.41817107506256
 20
-7.381449658900557
 10
26.99458989999838
 20
-7.026022851130562
 10
28.13994889508774
 20
-6.06495254078549
 10
28.13994889508774
 20
-5.750750801259265
 10
28.13994889508775
 20
-2.717121911847329
  0
LINE
  5
AD539
330
1F
100
AcDbEntity
  8
HI Deatil 2
100
AcDbLine
 10
18.86572693755185
 20
-5.747225149524362
 30
0.0
 11
22.90233216039465
 21
-5.747225149524366
 31
0.0
  0
LINE
  5
AD53A
330
1F
100
AcDbEntity
  8
HI Deatil 2
100
AcDbLine
 10
23.03326600408235
 20
-5.747225149524366
 30
0.0
 11
23.47521398288019
 21
-5.747225149524366
 31
0.0
  0
LINE
  5
AD53B
330
1F
100
AcDbEntity
  8
HI Deatil 2
100
AcDbLine
 10
18.86572693755187
 20
-6.176488558646477
 30
0.0
 11
22.90233216039466
 21
-6.176488558646481
 31
0.0
  0
LINE
  5
AD53C
330
1F
100
AcDbEntity
  8
HI Deatil 2
100
AcDbLine
 10
23.03326600408237
 20
-6.176488558646481
 30
0.0
 11
23.47521398288021
 21
-6.176488558646481
 31
0.0
  0
LWPOLYLINE
  5
AD53D
102
{ACAD_REACTORS
330
AD54E
102
}
330
1F
100
AcDbEntity
  8
HI Deatil 2
100
AcDbPolyline
 90
        2
 70
     0
 43
0.0
 10
23.03326600408235
 20
-5.747225149524366
 10
23.47521398288019
 20
-5.747225149524366
  0
LWPOLYLINE
  5
AD53E
102
{ACAD_REACTORS
330
AD54E
102
}
330
1F
100
AcDbEntity
  8
HI Deatil 2
100
AcDbPolyline
 90
        2
 70
     0
 43
0.0
 10
23.03326600408237
 20
-6.176488558646477
 10
23.47521398288021
 20
-6.176488558646477
  0
LWPOLYLINE
  5
AD53F
102
{ACAD_REACTORS
330
AD54E
102
}
330
1F
100
AcDbEntity
  8
HI Deatil 2
100
AcDbPolyline
 90
        2
 70
     0
 43
0.0
 10
22.90233216039465
 20
-5.747225149524366
 10
22.93692434852042
 20
-5.718857163667129
  0
LWPOLYLINE
  5
AD540
102
{ACAD_REACTORS
330
AD54E
102
}
330
1F
100
AcDbEntity
  8
HI Deatil 2
100
AcDbPolyline
 90
        2
 70
     0
 43
0.0
 10
23.03326600408235
 20
-5.747225149524366
 10
22.99780054258473
 20
-5.718613250649935
  0
ARC
  5
AD541
102
{ACAD_REACTORS
330
AD54E
102
}
330
1F
100
AcDbEntity
  8
HI Deatil 2
100
AcDbCircle
 10
22.9675220737662
 20
-5.7585754675202
 30
0.0
 40
0.0501374555714761
100
AcDbArc
 50
52.8496131518858
 51
127.6095190880154
  0
LWPOLYLINE
  5
AD542
102
{ACAD_REACTORS
330
AD54E
102
}
330
1F
100
AcDbEntity
  8
HI HATCH FILL
100
AcDbPolyline
 90
        2
 70
     0
 43
0.0
 10
22.96732118933036
 20
-5.819956410473638
 10
22.96732118933036
 20
-6.10485440274868
  0
LWPOLYLINE
  5
AD543
102
{ACAD_REACTORS
330
AD54E
102
}
330
1F
100
AcDbEntity
  8
HI Deatil 2
100
AcDbPolyline
 90
        2
 70
     0
 43
0.0
 10
22.90233216039466
 20
-6.176488558646477
 10
22.93692434852044
 20
-6.204856544503714
  0
LWPOLYLINE
  5
AD544
102
{ACAD_REACTORS
330
AD54E
102
}
330
1F
100
AcDbEntity
  8
HI Deatil 2
100
AcDbPolyline
 90
        2
 70
     0
 43
0.0
 10
23.03326600408237
 20
-6.176488558646477
 10
22.99780054258474
 20
-6.205100457520908
  0
ARC
  5
AD545
102
{ACAD_REACTORS
330
AD54E
102
}
330
1F
100
AcDbEntity
  8
HI Deatil 2
100
AcDbCircle
 10
22.96752207376622
 20
-6.165138240650643
 30
0.0
 40
0.0501374555714761
100
AcDbArc
 50
232.3904809119845
 51
307.1503868481141
  0
LWPOLYLINE
  5
AD546
102
{ACAD_REACTORS
330
AD54E
102
}
330
1F
100
AcDbEntity
  8
HI Deatil 2
100
AcDbPolyline
 90
        2
 70
     0
 43
0.0
 10
23.47521398288019
 20
-5.747225149524366
 10
23.50980617100599
 20
-5.718857163667129
  0
LWPOLYLINE
  5
AD547
102
{ACAD_REACTORS
330
AD54E
102
}
330
1F
100
AcDbEntity
  8
HI Deatil 2
100
AcDbPolyline
 90
        2
 70
     0
 43
0.0
 10
23.6061478265679
 20
-5.747225149524366
 10
23.57068236507029
 20
-5.718613250649935
  0
ARC
  5
AD548
102
{ACAD_REACTORS
330
AD54E
102
}
330
1F
100
AcDbEntity
  8
HI Deatil 2
100
AcDbCircle
 10
23.54040389625176
 20
-5.7585754675202
 30
0.0
 40
0.0501374555714761
100
AcDbArc
 50
52.8496131518858
 51
127.6095190880154
  0
LWPOLYLINE
  5
AD549
102
{ACAD_REACTORS
330
AD54E
102
}
330
1F
100
AcDbEntity
  8
HI HATCH FILL
100
AcDbPolyline
 90
        2
 70
     0
 43
0.0
 10
23.54020301181592
 20
-5.819956410473638
 10
23.54020301181592
 20
-6.10485440274868
  0
LWPOLYLINE
  5
AD54A
102
{ACAD_REACTORS
330
AD54E
102
}
330
1F
100
AcDbEntity
  8
HI Deatil 2
100
AcDbPolyline
 90
        2
 70
     0
 43
0.0
 10
23.47521398288021
 20
-6.176488558646477
 10
23.50980617100601
 20
-6.204856544503714
  0
LWPOLYLINE
  5
AD54B
102
{ACAD_REACTORS
330
AD54E
102
}
330
1F
100
AcDbEntity
  8
HI Deatil 2
100
AcDbPolyline
 90
        2
 70
     0
 43
0.0
 10
23.60614782656792
 20
-6.176488558646477
 10
23.5706823650703
 20
-6.205100457520908
  0
ARC
  5
AD54C
102
{ACAD_REACTORS
330
AD54E
102
}
330
1F
100
AcDbEntity
  8
HI Deatil 2
100
AcDbCircle
 10
23.54040389625177
 20
-6.165138240650643
 30
0.0
 40
0.0501374555714761
100
AcDbArc
 50
232.3904809119845
 51
307.1503868481141
  0
CIRCLE
  5
AD54D
102
{ACAD_REACTORS
330
AD54E
102
}
330
1F
100
AcDbEntity
  8
HI HATCH FILL
100
AcDbCircle
 10
23.25376210057313
 20
-5.962405406611155
 30
0.0
 40
0.0477196295443069
  0
LINE
  5
AD54F
330
1F
100
AcDbEntity
  8
HI Deatil 2
100
AcDbLine
 10
23.6061478265679
 20
-5.747225149524366
 30
0.0
 11
27.6427530494107
 21
-5.74722514952437
 31
0.0
  0
LINE
  5
AD550
330
1F
100
AcDbEntity
  8
HI Deatil 2
100
AcDbLine
 10
27.7736868930984
 20
-5.74722514952437
 30
0.0
 11
28.13994889508774
 21
-5.74722514952437
 31
0.0
  0
LINE
  5
AD551
330
1F
100
AcDbEntity
  8
HI Deatil 2
100
AcDbLine
 10
23.60614782656792
 20
-6.176488558646481
 30
0.0
 11
27.64275304941071
 21
-6.176488558646484
 31
0.0
  0
LINE
  5
AD552
330
1F
100
AcDbEntity
  8
HI Deatil 2
100
AcDbLine
 10
27.77368689309842
 20
-6.176488558646484
 30
0.0
 11
28.00702544509825
 21
-6.176488558646484
 31
0.0
  0
ARC
  5
AD557
330
1F
100
AcDbEntity
  8
HI Deatil 2
100
AcDbCircle
 10
27.70794296278225
 20
-5.758575467520204
 30
0.0
 40
0.0501374555714761
100
AcDbArc
 50
52.84961315188585
 51
127.6095190880154
  0
ARC
  5
AD55B
330
1F
100
AcDbEntity
  8
HI Deatil 2
100
AcDbCircle
 10
27.70794296278227
 20
-6.165138240650646
 30
0.0
 40
0.0501374555714761
100
AcDbArc
 50
232.3904809119845
 51
307.1503868481141
  0
CIRCLE
  5
AD563
330
1F
100
AcDbEntity
  8
HI HATCH FILL
100
AcDbCircle
 10
27.99418298958918
 20
-5.962405406611159
 30
0.0
 40
0.0477196295443069
  0
LINE
  5
AD580
330
1F
100
AcDbEntity
  8
HI Deatil 2
100
AcDbLine
 10
27.77368689309842
 20
-6.176488558646481
 30
0.0
 11
27.73822143160079
 21
-6.205100457520911
 31
0.0
  0
LINE
  5
AD581
330
1F
100
AcDbEntity
  8
HI Deatil 2
100
AcDbLine
 10
27.64275304941071
 20
-6.176488558646481
 30
0.0
 11
27.67734523753649
 21
-6.204856544503718
 31
0.0
  0
LINE
  5
AD582
330
1F
100
AcDbEntity
  8
HI HATCH FILL
100
AcDbLine
 10
27.70774207834641
 20
-5.819956410473642
 30
0.0
 11
27.70774207834641
 21
-6.104854402748683
 31
0.0
  0
LINE
  5
AD583
330
1F
100
AcDbEntity
  8
HI Deatil 2
100
AcDbLine
 10
27.7736868930984
 20
-5.74722514952437
 30
0.0
 11
27.73822143160078
 21
-5.718613250649939
 31
0.0
  0
LINE
  5
AD584
330
1F
100
AcDbEntity
  8
HI Deatil 2
100
AcDbLine
 10
27.6427530494107
 20
-5.74722514952437
 30
0.0
 11
27.67734523753647
 21
-5.718857163667133
 31
0.0
  0
LINE
  5
AD585
330
1F
100
AcDbEntity
  8
HI Deatil 2
100
AcDbLine
 10
27.77368689309842
 20
-6.176488558646481
 30
0.0
 11
28.00702544509825
 21
-6.176488558646481
 31
0.0
  0
LINE
  5
AD586
330
1F
100
AcDbEntity
  8
HI Deatil 2
100
AcDbLine
 10
27.7736868930984
 20
-5.74722514952437
 30
0.0
 11
28.13994889508774
 21
-5.74722514952437
 31
0.0
  0
LINE
  5
AD587
330
1F
100
AcDbEntity
  8
HI Deatil 2
100
AcDbLine
 10
-3.395838734839218
 20
-9.737706921354263
 30
0.0
 11
-3.169982729193606
 21
-9.737706921354263
 31
0.0
  0
LINE
  5
AD588
330
1F
100
AcDbEntity
  8
HI Deatil 2
100
AcDbLine
 10
-3.600256487437733
 20
-10.16697033047638
 30
0.0
 11
-3.169982729193591
 21
-10.16697033047638
 31
0.0
  0
LWPOLYLINE
  5
AD58C
330
1F
100
AcDbEntity
  8
HI Dimensions
100
AcDbPolyline
 90
        2
 70
     0
 43
0.075
 10
16.39360865995721
 20
-14.12162824641846
 10
15.89360865995721
 20
-14.62162824641846
  0
LWPOLYLINE
  5
AD58D
330
1F
100
AcDbEntity
  8
HI Dimensions
100
AcDbPolyline
 90
        2
 70
     0
 43
0.075
 10
21.13402954897328
 20
-14.12162824641844
 10
20.63402954897327
 20
-14.62162824641844
  0
LINE
  5
AD58E
330
1F
100
AcDbEntity
  8
HI Dimensions
100
AcDbLine
 10
15.79032615755554
 20
-14.37162824641846
 30
0.0
 11
18.1025338620727
 21
-14.37162824641844
 31
0.0
  0
LINE
  5
AD58F
330
1F
100
AcDbEntity
  8
HI Dimensions
100
AcDbLine
 10
18.97163143200018
 20
-14.37162824641844
 30
0.0
 11
21.29237577768308
 21
-14.37162824641844
 31
0.0
  0
MTEXT
  5
AD590
102
{ACAD_XDICTIONARY
360
AD591
102
}
330
1F
100
AcDbEntity
  8
HI Text
100
AcDbMText
 10
18.54135096761931
 20
-14.37162824641845
 30
0.0
 40
0.5
 41
9.609171224198007
 46
0.0
 71
     5
 72
     5
  1
\pi-1.5,l2,t2;AS SPECIFIED
  7
DIMS
 11
-0.0000000000000002
 21
-1.0
 31
0.0
 73
     1
 44
1.0
1001
ACAD
1000
ACAD_MTEXT_COLUMN_INFO_BEGIN
1070
    75
1070
     2
1070
    79
1070
     0
1070
    76
1070
     1
1070
    78
1070
     0
1070
    48
1040
9.609171224198007
1070
    49
1040
60.5201024220279
1070
    50
1070
     1
1040
0.0
1000
ACAD_MTEXT_COLUMN_INFO_END
  0
LINE
  5
AD592
330
1F
100
AcDbEntity
  8
HI Dimensions
100
AcDbLine
 10
20.88402954897327
 20
-10.36305245897326
 30
0.0
 11
20.88402954897327
 21
-14.80121967786841
 31
0.0
  0
LINE
  5
AD593
330
1F
100
AcDbEntity
  8
HI Dimensions
100
AcDbLine
 10
16.14360865995721
 20
-10.36305245897327
 30
0.0
 11
16.14360865995721
 21
-14.80121967786842
 31
0.0
  0
LWPOLYLINE
  5
AD594
330
1F
100
AcDbEntity
  8
HI Dimensions
100
AcDbPolyline
 90
        2
 70
     0
 43
0.075
 10
32.09814486132113
 20
-9.706817866671769
 10
32.59814486132113
 20
-10.20681786667177
  0
LWPOLYLINE
  5
AD595
330
1F
100
AcDbEntity
  8
HI Dimensions
100
AcDbPolyline
 90
        2
 70
     0
 43
0.075
 10
32.09814486132112
 20
-5.712405406611161
 10
32.59814486132112
 20
-6.212405406611161
  0
LINE
  5
AD596
330
1F
100
AcDbEntity
  8
HI Dimensions
100
AcDbLine
 10
32.34814486132113
 20
-10.43992964138607
 30
0.0
 11
32.34814486132112
 21
-8.404760985019834
 31
0.0
  0
MTEXT
  5
AD598
102
{ACAD_XDICTIONARY
360
AD599
102
}
330
1F
100
AcDbEntity
  8
HI Text
100
AcDbMText
 10
32.34814486132112
 20
-8.006865947637265
 30
0.0
 40
0.5
 41
9.609171224198007
 46
0.0
 71
     5
 72
     5
  1
\pi-1.5,l2,t2;AS SPECIFIED
  7
DIMS
 73
     1
 44
1.0
1001
ACAD
1000
ACAD_MTEXT_COLUMN_INFO_BEGIN
1070
    75
1070
     2
1070
    79
1070
     0
1070
    76
1070
     1
1070
    78
1070
     0
1070
    48
1040
9.609171224198007
1070
    49
1040
60.5201024220279
1070
    50
1070
     1
1040
0.0
1000
ACAD_MTEXT_COLUMN_INFO_END
  0
LINE
  5
AD59A
330
1F
100
AcDbEntity
  8
HI Dimensions
100
AcDbLine
 10
28.33956907387593
 20
-5.962405406611161
 30
0.0
 11
32.77773629277108
 21
-5.962405406611161
 31
0.0
  0
LINE
  5
AD59B
330
1F
100
AcDbEntity
  8
HI Dimensions
100
AcDbLine
 10
28.33956907387594
 20
-9.956817866671769
 30
0.0
 11
32.7777362927711
 21
-9.956817866671769
 31
0.0
  0
LINE
  5
AD59C
330
1F
100
AcDbEntity
  8
HI Dimensions
100
AcDbLine
 10
32.34814486132112
 20
-7.644306153814171
 30
0.0
 11
32.34814486132112
 21
-5.573802253888459
 31
0.0
  0
LWPOLYLINE
  5
AD59D
330
1F
100
AcDbEntity
  8
HI Text
100
AcDbPolyline
 90
        2
 70
     0
 43
0.0
 10
35.85752241964319
 20
0.1053527799916138
 10
48.5942368964933
 20
0.1053527799916138
  0
MTEXT
  5
AD59E
330
1F
100
AcDbEntity
  8
HI Text
100
AcDbMText
 10
38.9919816357248
 20
0.663498981029187
 30
0.0
 40
0.7499999999999999
 41
0.0
 46
0.0
 71
     6
 72
     1
  1
{\fArial|b0|i0|c0|p34;LEGEND:}
  7
Hunter
 73
     1
 44
1.0
  0
MTEXT
  5
AD59F
330
1F
100
AcDbEntity
  8
HI Text
100
AcDbMText
 10
36.69371101099084
 20
-0.5842876257648926
 30
0.0
 40
0.5
 41
0.0
 46
0.0
 71
     6
 72
     1
  1
{\fArial|b0|i0|c0|p34;1}
  7
Hunter
 73
     1
 44
1.0
  0
CIRCLE
  5
AD5A0
330
1F
100
AcDbEntity
  8
HI Text
100
AcDbCircle
 10
36.62301507490854
 20
-2.431534468144099
 30
0.0
 40
0.511352622321557
  0
MTEXT
  5
AD5A1
330
1F
100
AcDbEntity
  8
HI Text
100
AcDbMText
 10
36.69371101099084
 20
-2.401180966489823
 30
0.0
 40
0.5
 41
0.0
 46
0.0
 71
     6
 72
     1
  1
{\fArial|b0|i0|c0|p34;2}
  7
Hunter
 73
     1
 44
1.0
  0
CIRCLE
  5
AD5A2
330
1F
100
AcDbEntity
  8
HI Text
100
AcDbCircle
 10
36.62301507490854
 20
-0.6146411274191679
 30
0.0
 40
0.511352622321557
  0
MTEXT
  5
AD5A3
330
1F
100
AcDbEntity
  8
HI Text
100
AcDbMText
 10
37.24382380764513
 20
-5.59819718082309
 30
0.0
 40
0.5
 41
14.36766712141882
 46
0.0
 71
     1
 72
     1
  1
\A1;{\fArial|b0|i0|c0|p34;NOTES \PTRIANGULATE EMITTERS FOR PROPER COVERAGE?}
  7
Hunter
 73
     1
 44
1.0
  0
MTEXT
  5
AD5A4
330
1F
100
AcDbEntity
  8
HI Text
100
AcDbMText
 10
37.24382380764513
 20
-0.6262125014565059
 30
0.0
 40
0.5
 41
14.36766712141882
 46
0.6558663028649381
 71
     4
 72
     1
  1
\A1;{\fArial|b0|i0|c0|p34;PROFESSIONAL LANDSCAPE DRIPLINE PER PLAN}
  7
Hunter
 73
     1
 44
1.0
  0
MTEXT
  5
AD5A5
330
1F
100
AcDbEntity
  8
HI Text
100
AcDbMText
 10
37.2438369836196
 20
-2.412818830074292
 30
0.0
 40
0.5
 41
14.36766712141882
 46
0.0
 71
     4
 72
     1
  1
\A1;{\fArial|b0|i0|c0|p34;HEDGE ROW (SEE PLANTING PLAN)}
  7
Hunter
 73
     1
 44
1.0
  0
CIRCLE
  5
AD5B8
330
1F
100
AcDbEntity
  8
HI Text
100
AcDbCircle
 10
30.94705537717724
 20
-0.5383311748008311
 30
0.0
 40
0.511352622321557
  0
LEADER
  5
AD5B9
330
1F
100
AcDbEntity
  8
HI Text
100
AcDbLeader
  3
LandMatters
 76
     3
 10
25.11175720469618
 20
-4.874500383018485
 30
0.0
 10
29.85555770716562
 20
-0.5383311748008098
 30
0.0
 10
30.43570275485567
 20
-0.5383311748008453
 30
0.0
211
-0.0000000000000002
221
-1.0
231
0.0
1001
ACAD
1000
DSTYLE
1002
{
1070
    41
1040
0.5
1002
}
  0
MTEXT
  5
AD5BA
330
1F
100
AcDbEntity
  8
HI Text
100
AcDbMText
 10
31.03003372495877
 20
-0.5079776731465558
 30
0.0
 40
0.5
 41
0.0
 46
0.0
 71
     6
 72
     1
  1
{\fArial|b0|i0|c0|p34;2}
  7
Hunter
 73
     1
 44
1.0
  0
CIRCLE
  5
AD5C1
330
1F
100
AcDbEntity
  8
HI Text
100
AcDbCircle
 10
30.93176503613577
 20
0.4872594644609052
 30
0.0
 40
0.511352622321557
  0
LEADER
  5
AD5C2
330
1F
100
AcDbEntity
  8
HI Text
100
AcDbLeader
  3
LandMatters
 76
     3
 10
20.88402954897325
 20
-5.747225149524364
 30
0.0
 10
29.84026736612415
 20
0.4872594644609265
 30
0.0
 10
30.42041241381421
 20
0.487259464460891
 30
0.0
211
-0.0000000000000002
221
-1.0
231
0.0
1001
ACAD
1000
DSTYLE
1002
{
1070
    41
1040
0.5
1002
}
  0
MTEXT
  5
AD5C3
330
1F
100
AcDbEntity
  8
HI Text
100
AcDbMText
 10
31.01474338391731
 20
0.5176129661151805
 30
0.0
 40
0.5
 41
0.0
 46
0.0
 71
     6
 72
     1
  1
{\fArial|b0|i0|c0|p34;1}
  7
Hunter
 73
     1
 44
1.0
  0
CIRCLE
  5
AD5C8
330
1F
100
AcDbEntity
  8
HI Text
100
AcDbCircle
 10
-3.449214729896851
 20
-19.73864188683224
 30
0.0
 40
1.633232321863463
  0
CIRCLE
  5
AD5C9
330
1F
100
AcDbEntity
  8
HI Text
100
AcDbCircle
 10
1.639008128267647
 20
-20.19862788150125
 30
0.0
 40
0.0666400503025599
  0
LINE
  5
AD5CA
330
1F
100
AcDbEntity
  8
HI Text
100
AcDbLine
 10
-1.815982408033818
 20
-19.73864188683224
 30
0.0
 11
48.7011151218561
 21
-19.73864188683219
 31
0.0
  0
TEXT
  5
AD5CB
330
1F
100
AcDbEntity
  8
HI Text
100
AcDbText
 10
1.611707509927003
 20
-20.2393602529817
 30
0.0
 40
0.0866448019748771
  1
R
  7
STYLE1
 72
     1
 11
1.640589110585295
 21
-20.2393602529817
 31
0.0
100
AcDbText
  0
HATCH
  5
AD5CC
330
1F
100
AcDbEntity
  8
HI Text
100
AcDbHatch
 10
0.0
 20
0.0
 30
0.0
210
0.0
220
0.0
230
1.0
  2
SOLID
 70
     1
 71
     1
 91
       10
 92
        1
 93
        9
 72
     1
 10
0.3123446319918912
 20
-20.33529388722408
 11
0.5927800647978359
 21
-20.08840023486923
 72
     1
 10
0.5927800647978359
 20
-20.08840023486923
 11
0.5927800647978359
 21
-20.28139050430338
 72
     1
 10
0.5927800647978359
 20
-20.28139050430338
 11
0.6764809699541559
 21
-20.28139050430338
 72
     1
 10
0.6764809699541559
 20
-20.28139050430338
 11
0.6764809699542127
 21
-20.33529388722408
 72
     1
 10
0.6764809699542127
 20
-20.33529388722408
 11
0.5927800647978359
 21
-20.33529388722408
 72
     1
 10
0.5927800647978359
 20
-20.33529388722408
 11
0.5927800647978359
 21
-20.77254741576094
 72
     1
 10
0.5927800647978359
 20
-20.77254741576094
 11
0.3841974091481859
 21
-20.77254741576094
 72
     1
 10
0.3841974091481859
 20
-20.77254741576094
 11
0.3841974091481859
 21
-20.33529388722408
 72
     1
 10
0.3841974091481859
 20
-20.33529388722408
 11
0.3123446319918912
 21
-20.33529388722408
 97
        1
330
AD5D6
 92
        1
 93
        4
 72
     1
 10
0.0816970387819822
 20
-20.77254741576094
 11
-0.1268856168676393
 21
-20.77254741576094
 72
     1
 10
-0.1268856168676393
 20
-20.77254741576094
 11
-0.1268856168676393
 21
-20.28139050430338
 72
     1
 10
-0.1268856168676393
 20
-20.28139050430338
 11
0.0816970387819822
 21
-20.28139050430338
 72
     1
 10
0.0816970387819822
 20
-20.28139050430338
 11
0.0816970387819822
 21
-20.77254741576094
 97
        1
330
AD5D5
 92
        1
 93
       12
 72
     1
 10
-0.9395433872471414
 20
-20.42703007927546
 11
-0.9395433872471414
 21
-20.77254741576094
 72
     1
 10
-0.9395433872471414
 20
-20.77254741576094
 11
-0.6849865888862894
 21
-20.77254741576094
 72
     1
 10
-0.6849865888862894
 20
-20.77254741576094
 11
-0.6849865888862894
 21
-20.08218235003126
 72
     1
 10
-0.6849865888862894
 20
-20.08218235003126
 11
-0.9395433872471414
 21
-20.08218235003126
 72
     1
 10
-0.9395433872471414
 20
-20.08218235003126
 11
-0.9395433872470846
 21
-20.36308258773603
 72
     1
 10
-0.9395433872470846
 20
-20.36308258773603
 11
-1.007614568919649
 21
-20.36308258773603
 72
     1
 10
-1.007614568919649
 20
-20.36308258773603
 11
-1.007614568919478
 21
-20.08218235003126
 72
     1
 10
-1.007614568919478
 20
-20.08218235003126
 11
-1.262171367280501
 21
-20.08218235003126
 72
     1
 10
-1.262171367280501
 20
-20.08218235003126
 11
-1.262171367280501
 21
-20.77254741576094
 72
     1
 10
-1.262171367280501
 20
-20.77254741576094
 11
-1.007614568919564
 21
-20.77254741576094
 72
     1
 10
-1.007614568919564
 20
-20.77254741576094
 11
-1.007614568919564
 21
-20.42703007927546
 72
     1
 10
-1.007614568919564
 20
-20.42703007927546
 11
-0.9395433872471414
 21
-20.42703007927546
 97
        1
330
AD5D4
 92
        1
 93
        6
 72
     2
 10
0.876108011838383
 20
-20.41648005150529
 40
0.3557288469148716
 50
269.9999999998558
 51
311.0226094260931
 73
     1
 72
     1
 10
1.109593056991656
 20
-20.68485990584827
 11
1.109593056981765
 21
-20.619783985482
 72
     2
 10
0.8761080118280375
 20
-20.38902615461792
 40
0.3282749500274625
 50
44.66341740663169
 51
94.35762720154757
 73
     0
 72
     1
 10
0.8511651421008252
 20
-20.71635213291067
 11
0.8511651421002
 21
-20.28172902164421
 72
     2
 10
0.8640550814949534
 20
-20.52696896003215
 40
0.2455784557287565
 50
93.00872752319534
 51
266.9912724769641
 73
     1
 72
     1
 10
0.8511651421008821
 20
-20.77220889842013
 11
0.8761080118374877
 21
-20.77220889842016
 97
        1
330
AD5D3
 92
        1
 93
        4
 72
     1
 10
1.142387830853209
 20
-20.77254741575362
 11
1.142387830853209
 21
-20.28139050429606
 72
     1
 10
1.142387830853209
 20
-20.28139050429606
 11
1.350970486502859
 21
-20.28139050429606
 72
     1
 10
1.350970486502859
 20
-20.28139050429606
 11
1.350970486502859
 21
-20.77254741575362
 72
     1
 10
1.350970486502859
 20
-20.77254741575362
 11
1.142387830853209
 21
-20.77254741575362
 97
        1
330
AD5D2
 92
        1
 93
        5
 72
     1
 10
0.1286755923551084
 20
-20.28139050430338
 11
0.1286755923551084
 21
-20.77254741576094
 72
     1
 10
0.1286755923551084
 20
-20.77254741576094
 11
0.3372582480047299
 21
-20.77254741576094
 72
     1
 10
0.3372582480047299
 20
-20.77254741576094
 11
0.3372582480047299
 21
-20.43635968739223
 72
     2
 10
0.1822890649159205
 20
-20.43635968739223
 40
0.1549691830888094
 50
0.0
 51
90.0
 73
     1
 72
     1
 10
0.1822890649159205
 20
-20.28139050430342
 11
0.1286755923551084
 21
-20.28139050430338
 97
        1
330
AD5D1
 92
        1
 93
        5
 72
     1
 10
-0.3824468260904155
 20
-20.28139050430338
 11
-0.1738641704407371
 21
-20.28139050430338
 72
     1
 10
-0.1738641704407371
 20
-20.28139050430338
 11
-0.1738641704407371
 21
-20.61757823267207
 72
     2
 10
-0.3288333535296033
 20
-20.61757823267204
 40
0.1549691830888662
 50
0.0000000000131293
 51
90.00000000001049
 73
     0
 72
     1
 10
-0.3288333535296317
 20
-20.7725474157609
 11
-0.3824468260904155
 21
-20.77254741576094
 72
     1
 10
-0.3824468260904155
 20
-20.77254741576094
 11
-0.3824468260904155
 21
-20.28139050430338
 97
        1
330
AD5D0
 92
        1
 93
        5
 72
     1
 10
-0.4830388522243539
 20
-20.77254741576094
 11
-0.4294253796635701
 21
-20.77254741576094
 72
     1
 10
-0.4294253796635701
 20
-20.77254741576094
 11
-0.4294253796635701
 21
-20.28139050430338
 72
     1
 10
-0.4294253796635701
 20
-20.28139050430338
 11
-0.6380080353131632
 21
-20.28139050430338
 72
     1
 10
-0.6380080353131632
 20
-20.28139050430338
 11
-0.6380080353131632
 21
-20.61757823267207
 72
     2
 10
-0.4830388522243254
 20
-20.6175782326721
 40
0.1549691830888378
 50
179.9999999999895
 51
269.9999999999895
 73
     1
 97
        1
330
AD5CF
 92
        1
 93
        5
 72
     1
 10
1.118918250278426
 20
-20.52696896003184
 11
1.118918250285759
 21
-20.46901851392606
 72
     2
 10
0.9134139304723447
 20
-20.48687432730449
 40
0.2062785871906715
 50
4.965831443762783
 51
83.99132804351138
 73
     1
 72
     1
 10
0.9350069640458684
 20
-20.28172902164415
 11
0.9010508815740365
 21
-20.28172902163064
 72
     1
 10
0.9010508815740365
 20
-20.28172902163064
 11
0.9010508815740365
 21
-20.52696896003184
 72
     1
 10
0.9010508815740365
 20
-20.52696896003184
 11
1.118918250278426
 21
-20.52696896003184
 97
        1
330
AD5CE
 92
        1
 93
        1
 72
     2
 10
1.474044144210637
 20
-20.38099458143215
 40
0.0996040771360683
 50
0.0
 51
360.0
 73
     1
 97
        1
330
AD5CD
 75
     1
 76
     1
 98
        1
 10
91.08506279971591
 20
29.98087750172317
450
        0
451
        0
460
0.0
461
0.0
452
        0
462
1.0
453
        2
463
0.0
 63
     5
421
      255
463
1.0
 63
     2
421
 16776960
470
LINEAR
1001
GradientColor1ACI
1070
     5
1001
GradientColor2ACI
1070
     2
1001
ACAD
1010
-92.3472341669964
1020
-50.75342491748411
1030
0.0
  0
CIRCLE
  5
AD5CD
102
{ACAD_REACTORS
330
AD5CC
102
}
330
1F
100
AcDbEntity
  8
HI Text
100
AcDbCircle
 10
1.474044144210637
 20
-20.38099458143215
 30
0.0
 40
0.0996040771360683
  0
LWPOLYLINE
  5
AD5CE
102
{ACAD_REACTORS
330
AD5CC
102
}
330
1F
100
AcDbEntity
  8
HI Text
100
AcDbPolyline
 90
        5
 70
     1
 43
0.0
 10
1.118918250278426
 20
-20.52696896003184
 10
1.118918250285759
 20
-20.46901851392606
 42
0.3591622824268968
 10
0.9350069640458684
 20
-20.28172902164415
 10
0.9010508815740365
 20
-20.28172902163064
 10
0.9010508815740365
 20
-20.52696896003184
  0
LWPOLYLINE
  5
AD5CF
102
{ACAD_REACTORS
330
AD5CC
102
}
330
1F
100
AcDbEntity
  8
HI Text
100
AcDbPolyline
 90
        5
 70
     1
 43
0.0
 10
-0.4830388522243539
 20
-20.77254741576094
 10
-0.4294253796635701
 20
-20.77254741576094
 10
-0.4294253796635701
 20
-20.28139050430338
 10
-0.6380080353131632
 20
-20.28139050430338
 10
-0.6380080353131632
 20
-20.61757823267207
 42
0.4142135623730951
  0
LWPOLYLINE
  5
AD5D0
102
{ACAD_REACTORS
330
AD5CC
102
}
330
1F
100
AcDbEntity
  8
HI Text
100
AcDbPolyline
 90
        5
 70
     1
 43
0.0
 10
-0.3824468260904155
 20
-20.28139050430338
 10
-0.1738641704407371
 20
-20.28139050430338
 10
-0.1738641704407371
 20
-20.61757823267207
 42
-0.4142135623730951
 10
-0.3288333535296317
 20
-20.7725474157609
 10
-0.3824468260904155
 20
-20.77254741576094
  0
LWPOLYLINE
  5
AD5D1
102
{ACAD_REACTORS
330
AD5CC
102
}
330
1F
100
AcDbEntity
  8
HI Text
100
AcDbPolyline
 90
        5
 70
     1
 43
0.0
 10
0.1286755923551084
 20
-20.28139050430338
 10
0.1286755923551084
 20
-20.77254741576094
 10
0.3372582480047299
 20
-20.77254741576094
 10
0.3372582480047299
 20
-20.43635968739223
 42
0.4142135623730948
 10
0.1822890649159205
 20
-20.28139050430342
  0
LWPOLYLINE
  5
AD5D2
102
{ACAD_REACTORS
330
AD5CC
102
}
330
1F
100
AcDbEntity
  8
HI Text
100
AcDbPolyline
 90
        4
 70
     1
 43
0.0
 10
1.142387830853209
 20
-20.77254741575362
 10
1.142387830853209
 20
-20.28139050429606
 10
1.350970486502859
 20
-20.28139050429606
 10
1.350970486502859
 20
-20.77254741575362
  0
LWPOLYLINE
  5
AD5D3
102
{ACAD_REACTORS
330
AD5CC
102
}
330
1F
100
AcDbEntity
  8
HI Text
100
AcDbPolyline
 90
        7
 70
     0
 43
0.0
 10
0.8761080118374877
 20
-20.77220889842016
 42
0.1809313373683727
 10
1.109593056991656
 20
-20.68485990584827
 10
1.109593056981765
 20
-20.619783985482
 42
-0.2202952373044754
 10
0.8511651421008252
 20
-20.71635213291067
 10
0.8511651421002
 20
-20.28172902164421
 42
0.9488198287109453
 10
0.8511651421008821
 20
-20.77220889842013
 10
0.8761080118374877
 20
-20.77220889842016
  0
LWPOLYLINE
  5
AD5D4
102
{ACAD_REACTORS
330
AD5CC
102
}
330
1F
100
AcDbEntity
  8
HI Text
100
AcDbPolyline
 90
       12
 70
     1
 43
0.0
 10
-0.9395433872471414
 20
-20.42703007927546
 10
-0.9395433872471414
 20
-20.77254741576094
 10
-0.6849865888862894
 20
-20.77254741576094
 10
-0.6849865888862894
 20
-20.08218235003126
 10
-0.9395433872471414
 20
-20.08218235003126
 10
-0.9395433872470846
 20
-20.36308258773603
 10
-1.007614568919649
 20
-20.36308258773603
 10
-1.007614568919478
 20
-20.08218235003126
 10
-1.262171367280501
 20
-20.08218235003126
 10
-1.262171367280501
 20
-20.77254741576094
 10
-1.007614568919564
 20
-20.77254741576094
 10
-1.007614568919564
 20
-20.42703007927546
  0
LWPOLYLINE
  5
AD5D5
102
{ACAD_REACTORS
330
AD5CC
102
}
330
1F
100
AcDbEntity
  8
HI Text
100
AcDbPolyline
 90
        4
 70
     1
 43
0.0
 10
0.0816970387819822
 20
-20.77254741576094
 10
-0.1268856168676393
 20
-20.77254741576094
 10
-0.1268856168676393
 20
-20.28139050430338
 10
0.0816970387819822
 20
-20.28139050430338
  0
LWPOLYLINE
  5
AD5D6
102
{ACAD_REACTORS
330
AD5CC
102
}
330
1F
100
AcDbEntity
  8
HI Text
100
AcDbPolyline
 90
        9
 70
     1
 43
0.0
 10
0.3123446319918912
 20
-20.33529388722408
 10
0.5927800647978359
 20
-20.08840023486923
 10
0.5927800647978359
 20
-20.28139050430338
 10
0.6764809699541559
 20
-20.28139050430338
 10
0.6764809699542127
 20
-20.33529388722408
 10
0.5927800647978359
 20
-20.33529388722408
 10
0.5927800647978359
 20
-20.77254741576094
 10
0.3841974091481859
 20
-20.77254741576094
 10
0.3841974091481859
 20
-20.33529388722408
  0
MTEXT
  5
AD5D7
102
{ACAD_XDICTIONARY
360
AD5D8
102
}
330
1F
100
AcDbEntity
  8
HI Text
100
AcDbMText
 10
45.13648820822361
 20
-18.92532831345504
 30
0.0
 40
0.9703124999999996
 41
46.52273337225305
 46
2.637802694406595
 71
     6
 72
     1
  1
{\fArial|b0|i0|c0|p34;PROFESSIONAL LANDSCAPE DRIPLINE - HEDGE ROW}
  7
Hunter
 73
     1
 44
1.0
  0
MTEXT
  5
AD5D9
330
1F
100
AcDbEntity
  8
HI Text
100
AcDbMText
 10
48.32680601844794
 20
-20.31934982226653
 30
0.0
 40
0.5624999999999999
 41
0.0
 46
0.0
 71
     6
 72
     1
  1
{\fArial|b0|i0|c0|p34;NOT TO SCALE}
  7
Hunter
 73
     1
 44
1.0
  0
MTEXT
  5
AD5DA
330
1F
100
AcDbEntity
  8
HI Text
100
AcDbMText
 10
-2.545629241941611
 20
-19.77134940469996
 30
0.0
 40
1.455468749999999
 41
0.0
 46
0.0
 71
     6
 72
     1
  1
{\fArial|b0|i0|c0|p34;XX}
  7
Hunter
 73
     1
 44
1.0
  0
MTEXT
  5
AD5DB
102
{ACAD_XDICTIONARY
360
AD5DC
102
}
330
1F
100
AcDbEntity
  8
HI Text
100
AcDbMText
 10
2.450749609505948
 20
-20.08218235003126
 30
0.0
 40
0.9703124999999996
 41
33.6762967440676
 46
0.0
 71
     1
 72
     1
  1
{\fArial|b0|i0|c0|p34;HM.PLD.11}
  7
Hunter
 73
     1
 44
1.0
  0
VIEWPORT
  5
A21C6
102
{ACAD_XDICTIONARY
360
A21C7
102
}
330
A21B8
100
AcDbEntity
 67
     1
  8
0
100
AcDbViewport
 10
5.379608251091793
 20
3.879980799414523
 30
0.0
 40
21.93022771561272
 41
10.60089553896558
 68
     1
 69
     1
 12
5.379608251091793
 22
3.879980799414523
 13
0.0
 23
0.0
 14
0.5
 24
0.5
 15
0.5
 25
0.5
 16
0.0
 26
0.0
 36
1.0
 17
0.0
 27
0.0
 37
0.0
 42
50.0
 43
0.0
 44
0.0
 45
10.60089553896558
 50
0.0
 51
0.0
 72
  1000
 90
   819232
  1

281
     0
 71
     1
 74
     0
110
0.0
120
0.0
130
0.0
111
1.0
121
0.0
131
0.0
112
0.0
122
1.0
132
0.0
 79
     0
146
0.0
170
     0
 61
     5
348
9F
292
     1
282
     1
141
0.0
142
0.0
 63
   250
421
  3355443
  0
VIEWPORT
  5
A21CA
102
{ACAD_XDICTIONARY
360
A21CB
102
}
330
A21B8
100
AcDbEntity
 67
     1
  8
HI No Print
100
AcDbViewport
 10
5.14477344054908
 20
3.904943799045813
 30
0.0
 40
10.25899498546174
 41
7.782805874275823
 68
     2
 69
     2
 12
22.36433419538395
 22
-10.06723063417578
 13
0.0
 23
0.0
 14
0.5
 24
0.5
 15
0.5
 25
0.5
 16
0.0
 26
0.0
 36
1.0
 17
0.0
 27
0.0
 37
0.0
 42
50.0
 43
0.0
 44
0.0
 45
43.52956430946817
 50
0.0
 51
0.0
 72
  1000
 90
   557664
  1

281
     0
 71
     1
 74
     0
110
0.0
120
0.0
130
0.0
111
1.0
121
0.0
131
0.0
112
0.0
122
1.0
132
0.0
 79
     0
146
0.0
170
     0
 61
     5
348
9F
292
     1
282
     1
141
0.0
142
0.0
 63
   250
421
  3355443
  0
ENDSEC
  0
SECTION
  2
OBJECTS
  0
DICTIONARY
  5
C
330
0
100
AcDbDictionary
281
     1
  3
ACAD_CIP_PREVIOUS_PRODUCT_INFO
350
5C44A
  3
ACAD_COLOR
350
73
  3
ACAD_DETAILVIEWSTYLE
350
5C43F
  3
ACAD_GROUP
350
D
  3
ACAD_IMAGE_DICT
350
620BA
  3
ACAD_IMAGE_VARS
350
9DA
  3
ACAD_LAYOUT
350
1A
  3
ACAD_MATERIAL
350
72
  3
ACAD_MLEADERSTYLE
350
A33
  3
ACAD_MLINESTYLE
350
17
  3
ACAD_PLOTSETTINGS
350
19
  3
ACAD_PLOTSTYLENAME
350
E
  3
ACAD_RENDER_ACTIVE_RAPIDRT_SETTINGS
350
A0A35
  3
ACAD_RENDER_ACTIVE_SETTINGS
350
A15E5
  3
ACAD_SCALELIST
350
A11
  3
ACAD_SECTIONVIEWSTYLE
350
5C43D
  3
ACAD_TABLESTYLE
350
86
  3
ACAD_VISUALSTYLE
350
99
  3
ACAD_WIPEOUT_VARS
350
14083
  3
AcadDim
350
45186
  3
AcadDim_CRX
350
95AB0
  3
AcAec
350
5C6BE
  3
ACDB_RECOMPOSE_DATA
350
AD689
  3
AcDbVariableDictionary
350
66
  3
AEC_CLASSIFICATION_SYSTEM_DEFS
350
F6
  3
AEC_CLEANUP_GROUP_DEFS
350
5C691
  3
AEC_DISP_REP_CONFIGURATIONS
350
5C68F
  3
AEC_DISP_REP_SETS
350
5C686
  3
AEC_DISP_REPS
350
5C560
  3
AEC_DISPLAY_PROPS_DEFAULTS
350
5C562
  3
AEC_LAYERKEY_STYLES
350
5C693
  3
AEC_PROPERTY_SET_DEFS
350
F7
  3
AEC_VARS
350
5C565
  0
DICTIONARY
  5
B51
330
8
100
AcDbDictionary
280
     1
281
     1
  0
DICTIONARY
  5
E7
330
2
100
AcDbDictionary
280
     1
281
     1
  3
ACAD_LAYERFILTERS
360
1DD06
  3
ACAD_LAYERSTATES
360
E8
  3
ACLYDICTIONARY
360
1DD05
  0
DICTIONARY
  5
A6C
330
10
100
AcDbDictionary
280
     1
281
     1
  3
ADSK_XREC_LAYER_RECONCILED
360
A6D
  0
DICTIONARY
  5
9EC2C
330
9EC2B
100
AcDbDictionary
280
     1
281
     1
  0
DICTIONARY
  5
A62
330
1F
100
AcDbDictionary
280
     1
281
     1
  3
ACAD_SORTENTS
360
A63
  0
DICTIONARY
  5
A21AF
330
A21AE
100
AcDbDictionary
280
     1
281
     1
  3
ASDK_XREC_ANNOTATION_SCALE_INFO
360
A21B0
  0
DICTIONARY
  5
A21B3
330
A21B2
100
AcDbDictionary
280
     1
281
     1
  3
ASDK_XREC_ANNOTATION_SCALE_INFO
360
A21B4
  0
DICTIONARY
  5
AD591
330
AD590
100
AcDbDictionary
280
     1
281
     1
  3
ACAD_MTEXT_2008_RT
360
AD686
  0
DICTIONARY
  5
AD599
330
AD598
100
AcDbDictionary
280
     1
281
     1
  3
ACAD_MTEXT_2008_RT
360
AD687
  0
DICTIONARY
  5
AD5D8
330
AD5D7
100
AcDbDictionary
280
     1
281
     1
  3
ACAD_MTEXT_2008_RT
360
AD688
  0
DICTIONARY
  5
AD5DC
330
AD5DB
100
AcDbDictionary
280
     1
281
     1
  0
DICTIONARY
  5
A21C7
330
A21C6
100
AcDbDictionary
280
     1
281
     1
  3
ASDK_XREC_ANNOTATION_SCALE_INFO
360
A21C8
  0
DICTIONARY
  5
A21CB
330
A21CA
100
AcDbDictionary
280
     1
281
     1
  3
ASDK_XREC_ANNOTATION_SCALE_INFO
360
A21CC
  0
XRECORD
  5
5C44A
102
{ACAD_REACTORS
330
C
102
}
330
C
100
AcDbXrecord
280
     1
300
ACD
300
2015
300
ACD_F_S
  0
DICTIONARY
  5
73
102
{ACAD_REACTORS
330
C
102
}
330
C
100
AcDbDictionary
281
     1
  0
DICTIONARY
  5
5C43F
102
{ACAD_REACTORS
330
C
102
}
330
C
100
AcDbDictionary
281
     1
  3
Imperial24
350
5C440
  0
DICTIONARY
  5
D
102
{ACAD_REACTORS
330
C
102
}
330
C
100
AcDbDictionary
281
     1
  3
*A1
350
AD4A0
  3
*A10
350
AD4A5
  3
*A11
350
AD4A6
  3
*A12
350
AD4A7
  3
*A13
350
AD4A8
  3
*A2
350
AD4A9
  3
*A3
350
AD4C9
  3
*A4
350
AD4F5
  3
*A5
350
AD54E
  3
*A6
350
AD4A1
  3
*A7
350
AD4A2
  3
*A8
350
AD4A3
  3
*A9
350
AD4A4
  0
DICTIONARY
  5
620BA
102
{ACAD_REACTORS
330
C
102
}
330
C
100
AcDbDictionary
281
     1
  0
RASTERVARIABLES
  5
9DA
102
{ACAD_REACTORS
330
C
102
}
330
C
100
AcDbRasterVariables
 90
        0
 70
     1
 71
     1
 72
     5
  0
DICTIONARY
  5
1A
102
{ACAD_REACTORS
330
C
102
}
330
C
100
AcDbDictionary
281
     1
  3
8.5 X 11
350
A21A1
  3
A4
350
A21B9
  3
Model
350
22
  0
DICTIONARY
  5
72
102
{ACAD_REACTORS
330
C
102
}
330
C
100
AcDbDictionary
281
     1
  3
ByBlock
350
97
  3
ByLayer
350
96
  3
Global
350
98
  0
DICTIONARY
  5
A33
102
{ACAD_REACTORS
330
C
102
}
330
C
100
AcDbDictionary
281
     1
  3
Standard
350
A34
  0
DICTIONARY
  5
17
102
{ACAD_REACTORS
330
C
102
}
330
C
100
AcDbDictionary
281
     1
  3
Standard
350
18
  0
DICTIONARY
  5
19
102
{ACAD_REACTORS
330
C
102
}
330
C
100
AcDbDictionary
281
     1
  3
500 - 24x36
350
E0
  3
500 - 30x42 Landscape
350
DE
  3
500 - 30x42 Portrait
350
DF
  3
6200 8.5x11
350
1052
  3
9800 - 11x17 Reduced
350
E1
  3
K550 - 8x11 Reduced
350
E2
  0
ACDBDICTIONARYWDFLT
  5
E
102
{ACAD_REACTORS
330
C
102
}
330
C
100
AcDbDictionary
281
     1
  3
Normal
350
F
100
AcDbDictionaryWithDefault
340
F
  0
ACAD_PROXY_OBJECT
  5
A0A35
102
{ACAD_REACTORS
330
C
102
}
330
C
100
AcDbProxyObject
 90
      499
 91
      769
 95
  3276827
 70
     0
162
               534
311
419340194019001A401D401B4024690401C001C001B001A4019401CC008000D4008001C8019401B80190019401C801A401B8019C008001B0019401D8019401B001CC00
161
               201
310
40AE40E4150140502000000000000021000000000000000840CC
 94
        0
  0
MENTALRAYRENDERSETTINGS
  5
A15E5
102
{ACAD_XDICTIONARY
360
A15E6
102
}
102
{ACAD_REACTORS
330
C
102
}
330
C
100
AcDbRenderSettings
 90
        2
  1
Medium
290
     1
290
     1
290
     1
290
     1
  1

  1

 90
        0
100
AcDbMentalRayRenderSettings
 90
        2
 90
        0
 90
        1
 70
     2
 40
3.0
 40
3.0
 40
0.0500000007450581
 40
0.0500000007450581
 40
0.0500000007450581
 40
0.0500000007450581
 70
     0
290
     0
290
     1
 90
        5
 90
        5
 90
        5
290
     0
 90
      500
290
     0
 40
1.0
 90
    10000
 90
        5
 90
        5
 90
        5
290
     0
 90
      200
290
     0
290
     0
290
     0
 40
1.0
 40
1.0
 40
1500.0
 70
     0
 70
     0
 40
10.0
 70
     0
 70
     0
290
     0
  1

 90
       32
 70
     0
 90
     1048
290
     0
 40
1.0
  0
DICTIONARY
  5
A11
102
{ACAD_REACTORS
330
C
102
}
330
C
100
AcDbDictionary
281
     1
  3
*A1
350
4D48B
  3
*A2
350
4D48C
  3
*A3
350
5C55A
  3
*A4
350
5C55B
  3
A0
350
A12
  3
A1
350
1DC91
  3
A2
350
1DC92
  3
A3
350
1DC93
  3
A4
350
1DC94
  3
A5
350
1DC95
  3
A6
350
1DC96
  3
A7
350
1DC97
  3
A8
350
1DC98
  3
A9
350
1DC99
  3
B0
350
1DC9A
  3
B1
350
1DC9B
  3
B2
350
1DC9C
  3
B3
350
1DC9D
  3
B4
350
1DC9E
  3
B5
350
1DC9F
  3
B6
350
1DCA0
  3
B7
350
1DCA1
  3
B8
350
1DCA2
  3
B9
350
1DCA3
  3
C0
350
1DCA4
  3
C1
350
1DCA5
  3
C2
350
1DCA6
  3
C3
350
1DCA7
  3
C4
350
1DCA8
  3
C5
350
1DCA9
  3
C6
350
1DCAA
  3
C7
350
1DCAB
  3
C8
350
1DCAC
  3
C9
350
1DCAD
  3
D0
350
1DCAE
  3
D1
350
1DCAF
  3
D2
350
1DCB0
  0
DICTIONARY
  5
5C43D
102
{ACAD_REACTORS
330
C
102
}
330
C
100
AcDbDictionary
281
     1
  3
Imperial24
350
5C43E
  0
DICTIONARY
  5
86
102
{ACAD_REACTORS
330
C
102
}
330
C
100
AcDbDictionary
281
     1
  3
Standard
350
87
  0
DICTIONARY
  5
99
102
{ACAD_REACTORS
330
C
102
}
330
C
100
AcDbDictionary
281
     1
  3
2dWireframe
350
9F
  3
3D Hidden
350
A1
  3
3dWireframe
350
A0
  3
Basic
350
9E
  3
Brighten
350
A5
  3
ColorChange
350
A9
  3
Conceptual
350
A2
  3
Dim
350
A4
  3
EdgeColorOff
350
5C43C
  3
Facepattern
350
A8
  3
Flat
350
9A
  3
FlatWithEdges
350
9B
  3
Gouraud
350
9C
  3
GouraudWithEdges
350
9D
  3
Hidden
350
5C434
  3
JitterOff
350
5C43A
  3
Linepattern
350
A7
  3
OverhangOff
350
5C43B
  3
Realistic
350
A3
  3
Shaded
350
5C439
  3
Shaded with edges
350
5C438
  3
Shades of Gray
350
5C435
  3
Sketchy
350
5C436
  3
Thicken
350
A6
  3
Wireframe
350
5C433
  3
X-Ray
350
5C437
  0
WIPEOUTVARIABLES
  5
14083
102
{ACAD_REACTORS
330
C
102
}
330
C
100
AcDbWipeoutVariables
 70
     1
  0
XRECORD
  5
45186
102
{ACAD_REACTORS
330
C
102
}
330
C
100
AcDbXrecord
280
     1
 90
   990106
  3

 60
     0
 61
     0
 62
     1
 63
     3
 64
     0
 65
     0
 66
     0
 67
     3
 68
     1
 69
     0
 70
     0
 71
     0
 72
     0
 40
0.0
170
     0
  0
XRECORD
  5
95AB0
102
{ACAD_REACTORS
330
C
102
}
330
C
100
AcDbXrecord
280
     1
 90
   990106
  3

 60
     0
 61
     0
 62
     1
 63
     3
 64
     0
 65
     0
 66
     0
 67
     3
 68
     1
 69
     0
 70
     0
 71
     0
 72
     0
 40
0.0
170
     0
  0
DICTIONARY
  5
5C6BE
102
{ACAD_REACTORS
330
C
102
}
330
C
100
AcDbDictionary
281
     1
  3
AcAecLayerManager
350
5C6BF
  0
XRECORD
  5
AD689
102
{ACAD_REACTORS
330
C
102
}
330
C
100
AcDbXrecord
280
     1
 90
        1
330
87
330
5C43E
330
5C440
330
AD590
330
AD598
330
AD5D7
  0
DICTIONARY
  5
66
102
{ACAD_REACTORS
330
C
102
}
330
C
100
AcDbDictionary
281
     1
  3
CANNOSCALE
350
B5D
  3
CMLEADERSTYLE
350
B5C
  3
CTABLESTYLE
350
89
  3
CVIEWDETAILSTYLE
350
66F55
  3
CVIEWSECTIONSTYLE
350
66F56
  3
DIMASSOC
350
67
  3
HIDETEXT
350
6B
  3
HPCOLOR
350
9D9A7
  3
HPTRANSPARENCY
350
9D9A6
  3
LAYEREVAL
350
25751
  3
LAYERNOTIFY
350
25752
  3
LIGHTINGUNITS
350
F79
  3
MSLTSCALE
350
F78
  0
DICTIONARY
  5
F6
102
{ACAD_REACTORS
330
C
102
}
330
C
100
AcDbDictionary
281
     1
  0
DICTIONARY
  5
5C691
102
{ACAD_REACTORS
330
C
102
}
330
C
100
AcDbDictionary
281
     1
  3
Standard
350
5C692
  0
DICTIONARY
  5
5C68F
102
{ACAD_REACTORS
330
C
102
}
330
C
100
AcDbDictionary
281
     1
  3
Medium Detail
350
5C6A8
  3
Standard
350
5C690
  0
DICTIONARY
  5
5C686
102
{ACAD_REACTORS
330
C
102
}
330
C
100
AcDbDictionary
281
     1
  3
Elevation
350
5C68A
  3
Model
350
5C687
  3
Model High Detail
350
5C68E
  3
Model Low Detail
350
5C68D
  3
Plan
350
5C688
  3
Plan Diagnostic
350
5C6AB
  3
Plan High Detail
350
5C68C
  3
Plan Low Detail
350
5C68B
  3
Reflected
350
5C689
  3
Section_Elev
350
5C6AE
  0
DICTIONARY
  5
5C560
102
{ACAD_REACTORS
330
C
102
}
330
C
100
AcDbDictionary
281
     1
  3
AecDbDispRep2dSection
350
5C564
  3
AecDbDispRepAnchor
350
5C568
  3
AecDbDispRepAnchorBubToGrid
350
5C604
  3
AecDbDispRepAnchorBubToGridMdl
350
5C621
  3
AecDbDispRepAnchorBubToGridRcp
350
5C608
  3
AecDbDispRepAnchorEntToNode
350
5C569
  3
AecDbDispRepAnchorExtendedTagToEnt
350
5C56B
  3
AecDbDispRepAnchorTagToEnt
350
5C561
  3
AecDbDispRepBdgElevLineModel
350
5C61D
  3
AecDbDispRepBdgElevLinePlan
350
5C5B4
  3
AecDbDispRepBdgElevLinePlan100
350
5C5B8
  3
AecDbDispRepBdgElevLinePlan50
350
5C5F6
  3
AecDbDispRepBdgElevLineRcp
350
5C60E
  3
AecDbDispRepBdgSectionLineModel
350
5C615
  3
AecDbDispRepBdgSectionLinePlan
350
5C5C6
  3
AecDbDispRepBdgSectionLinePlan100
350
5C5BA
  3
AecDbDispRepBdgSectionLinePlan50
350
5C5E9
  3
AecDbDispRepBdgSectionLineRcp
350
5C61B
  3
AecDbDispRepBdgSectionModel
350
5C610
  3
AecDbDispRepBdgSectionSubDiv
350
5C611
  3
AecDbDispRepCeilingGrid
350
5C5BE
  3
AecDbDispRepCeilingGridModel
350
5C613
  3
AecDbDispRepCeilingGridPlan100
350
5C5B6
  3
AecDbDispRepCeilingGridPlan50
350
5C5F0
  3
AecDbDispRepCeilingGridRcp
350
5C606
  3
AecDbDispRepClipVolModel
350
5C56D
  3
AecDbDispRepClipVolPlan
350
5C573
  3
AecDbDispRepClipVolResSubDiv
350
5C579
  3
AecDbDispRepClipVolResult
350
5C580
  3
AecDbDispRepColumnGrid
350
5C5C8
  3
AecDbDispRepColumnGridModel
350
5C617
  3
AecDbDispRepColumnGridPlan100
350
5C5C0
  3
AecDbDispRepColumnGridPlan50
350
5C5E7
  3
AecDbDispRepColumnGridRcp
350
5C619
  3
AecDbDispRepCurtainWallLayoutModel
350
5C61F
  3
AecDbDispRepCurtainWallLayoutPlan
350
5C5BC
  3
AecDbDispRepCurtainWallLayoutPlan100
350
5C5CA
  3
AecDbDispRepCurtainWallLayoutPlan50
350
5C5F8
  3
AecDbDispRepCurtainWallUnitModel
350
5C60A
  3
AecDbDispRepCurtainWallUnitPlan
350
5C5C2
  3
AecDbDispRepCurtainWallUnitPlan100
350
5C5C4
  3
AecDbDispRepCurtainWallUnitPlan50
350
5C5E5
  3
AecDbDispRepDimGroupPlan
350
5C645
  3
AecDbDispRepDimGroupPlan100
350
5C60C
  3
AecDbDispRepDimGroupPlan50
350
5C62B
  3
AecDbDispRepDisplayTheme
350
5C588
  3
AecDbDispRepDoorElev
350
5C635
  3
AecDbDispRepDoorModel
350
5C62D
  3
AecDbDispRepDoorNominal
350
5C639
  3
AecDbDispRepDoorPlan
350
5C63F
  3
AecDbDispRepDoorPlan50
350
5C62F
  3
AecDbDispRepDoorPlanHekto
350
5C625
  3
AecDbDispRepDoorRcp
350
5C641
  3
AecDbDispRepDoorThresholdPlan
350
5C631
  3
AecDbDispRepDoorThresholdSymbolPlan
350
5C623
  3
AecDbDispRepEditInPlaceProfile
350
5C571
  3
AecDbDispRepEntRef
350
5C575
  3
AecDbDispRepLayoutCurve
350
5C577
  3
AecDbDispRepLayoutGrid2d
350
5C56F
  3
AecDbDispRepLayoutGrid3d
350
5C57B
  3
AecDbDispRepMaskBlockRef
350
5C57E
  3
AecDbDispRepMaskBlockRefRcp
350
5C633
  3
AecDbDispRepMassElemModel
350
5C592
  3
AecDbDispRepMassElemPlan100
350
5C63B
  3
AecDbDispRepMassElemPlan50
350
5C637
  3
AecDbDispRepMassElemRcp
350
5C63D
  3
AecDbDispRepMassElemSchem
350
5C58C
  3
AecDbDispRepMassGroupModel
350
5C590
  3
AecDbDispRepMassGroupPlan
350
5C58E
  3
AecDbDispRepMassGroupPlan100
350
5C643
  3
AecDbDispRepMassGroupPlan50
350
5C627
  3
AecDbDispRepMassGroupRcp
350
5C629
  3
AecDbDispRepMaterial
350
5C586
  3
AecDbDispRepMaterial$General Medium Detail
350
5C6B1
  3
AecDbDispRepMvBlockRef
350
5C581
  3
AecDbDispRepMvBlockRef$Plan
350
5C6B4
  3
AecDbDispRepMvBlockRefModel
350
5C57D
  3
AecDbDispRepMvBlockRefPlan100
350
5C5CC
  3
AecDbDispRepMvBlockRefPlan50
350
5C5EB
  3
AecDbDispRepMvBlockRefRcp
350
5C64F
  3
AecDbDispRepOpening
350
5C64D
  3
AecDbDispRepOpeningModel
350
5C647
  3
AecDbDispRepOpeningPlan100
350
5C650
  3
AecDbDispRepOpeningPlan50
350
5C649
  3
AecDbDispRepOpeningPlanReflected
350
5C64B
  3
AecDbDispRepOpeningSillPlan
350
5C652
  3
AecDbDispRepPolygonModel
350
5C582
  3
AecDbDispRepPolygonTrueColour
350
5C584
  3
AecDbDispRepRailingModel
350
5C65E
  3
AecDbDispRepRailingPlan
350
5C654
  3
AecDbDispRepRailingPlan100
350
5C65A
  3
AecDbDispRepRailingPlan50
350
5C65C
  3
AecDbDispRepRoofModel
350
5C656
  3
AecDbDispRepRoofPlan
350
5C5CF
  3
AecDbDispRepRoofPlan100
350
5C5DF
  3
AecDbDispRepRoofPlan50
350
5C5F2
  3
AecDbDispRepRoofRcp
350
5C658
  3
AecDbDispRepRoofSlabModel
350
5C668
  3
AecDbDispRepRoofSlabPlan
350
5C5CD
  3
AecDbDispRepRoofSlabPlan100
350
5C5D5
  3
AecDbDispRepRoofSlabPlan50
350
5C5FA
  3
AecDbDispRepScheduleTable
350
5C684
  3
AecDbDispRepSlabModel
350
5C672
  3
AecDbDispRepSlabPlan
350
5C5DB
  3
AecDbDispRepSlabPlan100
350
5C5D1
  3
AecDbDispRepSlabPlan50
350
5C5F4
  3
AecDbDispRepSlice
350
5C58A
  3
AecDbDispRepSpaceDecomposed
350
5C666
  3
AecDbDispRepSpaceModel
350
5C66C
  3
AecDbDispRepSpacePlan
350
5C5D3
  3
AecDbDispRepSpacePlan100
350
5C5D7
  3
AecDbDispRepSpacePlan50
350
5C5FE
  3
AecDbDispRepSpaceRcp
350
5C664
  3
AecDbDispRepSpaceVolume
350
5C66E
  3
AecDbDispRepStairModel
350
5C660
  3
AecDbDispRepStairPlan
350
5C662
  3
AecDbDispRepStairPlan100
350
5C66A
  3
AecDbDispRepStairPlan50
350
5C670
  3
AecDbDispRepStairPlanOverlapping
350
5C5A6
  3
AecDbDispRepStairRcp
350
5C5A4
  3
AecDbDispRepWallGraph
350
5C5AA
  3
AecDbDispRepWallModel
350
5C596
  3
AecDbDispRepWallPlan
350
5C5DD
  3
AecDbDispRepWallPlan100
350
5C5D9
  3
AecDbDispRepWallPlan50
350
5C5FC
  3
AecDbDispRepWallRcp
350
5C59A
  3
AecDbDispRepWallSchem
350
5C5AC
  3
AecDbDispRepWindowAssemblyModel
350
5C5AE
  3
AecDbDispRepWindowAssemblyPlan
350
5C5EC
  3
AecDbDispRepWindowAssemblyPlan100
350
5C5EE
  3
AecDbDispRepWindowAssemblyPlan50
350
5C602
  3
AecDbDispRepWindowAssemblySillPlan
350
5C5A8
  3
AecDbDispRepWindowElev
350
5C594
  3
AecDbDispRepWindowModel
350
5C5A2
  3
AecDbDispRepWindowNominal
350
5C5B2
  3
AecDbDispRepWindowPlan
350
5C59C
  3
AecDbDispRepWindowPlan100
350
5C59E
  3
AecDbDispRepWindowPlan50
350
5C598
  3
AecDbDispRepWindowRcp
350
5C5B0
  3
AecDbDispRepWindowSillPlan
350
5C5A0
  3
AecDbDispRepZone
350
5C5E3
  3
AecDbDispRepZonePlan100
350
5C5E1
  3
AecDbDispRepZonePlan50
350
5C600
  3
AecsDbDispRepMemberElevationDesign
350
5C67C
  3
AecsDbDispRepMemberElevationDetail
350
5C678
  3
AecsDbDispRepMemberLogical
350
5C676
  3
AecsDbDispRepMemberModelDesign
350
5C67A
  3
AecsDbDispRepMemberModelDetail
350
5C674
  3
AecsDbDispRepMemberPlanDesign
350
5C67E
  3
AecsDbDispRepMemberPlanDetail
350
5C680
  3
AecsDbDispRepMemberPlanSketch
350
5C682
  0
DICTIONARY
  5
5C562
102
{ACAD_REACTORS
330
C
102
}
330
C
100
AcDbDictionary
281
     1
  3
*A1
350
5C563
  3
*A10
350
5C57A
  3
*A100
350
5C5C5
  3
*A101
350
5C58B
  3
*A102
350
5C60D
  3
*A103
350
5C681
  3
*A104
350
5C605
  3
*A105
350
5C58F
  3
*A106
350
5C5A7
  3
*A107
350
5C642
  3
*A108
350
5C5A9
  3
*A109
350
5C593
  3
*A11
350
5C5F5
  3
*A110
350
5C595
  3
*A111
350
5C6B7
  3
*A112
350
5C5D6
  3
*A113
350
5C61C
  3
*A114
350
5C65D
  3
*A115
350
5C587
  3
*A116
350
5C5E0
  3
*A117
350
5C5E8
  3
*A118
350
5C679
  3
*A119
350
5C624
  3
*A12
350
5C5DC
  3
*A120
350
5C5AF
  3
*A121
350
5C628
  3
*A122
350
5C591
  3
*A123
350
5C620
  3
*A124
350
5C5B3
  3
*A125
350
5C667
  3
*A126
350
5C5C7
  3
*A127
350
5C56C
  3
*A128
350
5C638
  3
*A129
350
5C640
  3
*A13
350
5C648
  3
*A130
350
5C5EA
  3
*A131
350
5C5AB
  3
*A132
350
5C644
  3
*A133
350
5C60B
  3
*A134
350
5C651
  3
*A135
350
5C56E
  3
*A136
350
5C5B5
  3
*A137
350
5C64C
  3
*A138
350
5C63E
  3
*A139
350
5C583
  3
*A14
350
5C5DE
  3
*A140
350
5C599
  3
*A141
350
5C65F
  3
*A142
350
5C665
  3
*A15
350
5C5C9
  3
*A16
350
5C626
  3
*A17
350
5C671
  3
*A18
350
5C59B
  3
*A19
350
5C5CE
  3
*A2
350
5C57F
  3
*A20
350
5C632
  3
*A21
350
5C63A
  3
*A22
350
5C5B9
  3
*A23
350
5C67B
  3
*A24
350
5C62C
  3
*A25
350
5C5FB
  3
*A26
350
5C67F
  3
*A27
350
5C5DA
  3
*A28
350
5C677
  3
*A29
350
5C5FF
  3
*A3
350
5C614
  3
*A30
350
5C5A5
  3
*A31
350
5C616
  3
*A32
350
5C603
  3
*A33
350
5C570
  3
*A34
350
5C578
  3
*A35
350
5C585
  3
*A36
350
5C63C
  3
*A37
350
5C5F7
  3
*A38
350
5C57C
  3
*A39
350
5C661
  3
*A4
350
5C5D2
  3
*A40
350
5C58D
  3
*A41
350
5C61A
  3
*A42
350
5C601
  3
*A43
350
5C589
  3
*A44
350
5C576
  3
*A45
350
5C5C3
  3
*A46
350
5C62E
  3
*A47
350
5C5E2
  3
*A48
350
5C59D
  3
*A49
350
5C5A3
  3
*A5
350
5C663
  3
*A50
350
5C618
  3
*A51
350
5C67D
  3
*A52
350
5C5B1
  3
*A53
350
5C5E4
  3
*A54
350
5C61E
  3
*A55
350
5C5AD
  3
*A56
350
5C56A
  3
*A57
350
5C572
  3
*A58
350
5C607
  3
*A59
350
5C5BB
  3
*A6
350
5C5C1
  3
*A60
350
5C683
  3
*A61
350
5C64E
  3
*A62
350
5C5BF
  3
*A63
350
5C62A
  3
*A64
350
5C5B7
  3
*A65
350
5C653
  3
*A66
350
5C669
  3
*A67
350
5C5F1
  3
*A68
350
5C66B
  3
*A69
350
5C657
  3
*A7
350
5C659
  3
*A70
350
5C630
  3
*A71
350
5C567
  3
*A72
350
5C5CB
  3
*A73
350
5C574
  3
*A74
350
5C64A
  3
*A75
350
5C597
  3
*A76
350
5C59F
  3
*A77
350
5C622
  3
*A78
350
5C5D4
  3
*A79
350
5C66F
  3
*A8
350
5C5D8
  3
*A80
350
5C655
  3
*A81
350
5C5D0
  3
*A82
350
5C673
  3
*A83
350
5C612
  3
*A84
350
5C685
  3
*A85
350
5C634
  3
*A86
350
5C5E6
  3
*A87
350
5C5EF
  3
*A88
350
5C5A1
  3
*A89
350
5C66D
  3
*A9
350
5C5F3
  3
*A90
350
5C5BD
  3
*A91
350
5C5FD
  3
*A92
350
5C636
  3
*A93
350
5C675
  3
*A94
350
5C5F9
  3
*A95
350
5C5ED
  3
*A96
350
5C646
  3
*A97
350
5C65B
  3
*A98
350
5C609
  3
*A99
350
5C60F
  0
DICTIONARY
  5
5C693
102
{ACAD_REACTORS
330
C
102
}
330
C
100
AcDbDictionary
281
     1
  3
AIA (256 Color)
350
5C6B8
  0
DICTIONARY
  5
F7
102
{ACAD_REACTORS
330
C
102
}
330
C
100
AcDbDictionary
281
     1
  0
DICTIONARY
  5
5C565
102
{ACAD_REACTORS
330
C
102
}
330
C
100
AcDbDictionary
281
     1
  3
AEC_VARS_ARCHBASE
350
5C6BB
  3
AEC_VARS_DWG_SETUP
350
5C566
  3
AEC_VARS_STRUCTUREBASE
350
5C6BC
  3
AECMX_VARS_MUNICH
350
5C6BD
  0
DICTIONARY
  5
1DD06
102
{ACAD_REACTORS
330
E7
102
}
330
E7
100
AcDbDictionary
281
     1
  0
DICTIONARY
  5
E8
102
{ACAD_REACTORS
330
E7
102
}
330
E7
100
AcDbDictionary
281
     1
  0
DICTIONARY
  5
1DD05
102
{ACAD_REACTORS
330
E7
102
}
330
E7
100
AcDbDictionary
281
     1
1001
ACAD
1000
<All
  0
XRECORD
  5
A6D
102
{ACAD_REACTORS
330
A6C
102
}
330
A6C
100
AcDbXrecord
280
     1
290
     1
  0
SORTENTSTABLE
  5
A63
102
{ACAD_REACTORS
330
A62
102
}
330
A62
100
AcDbSortentsTable
330
1F
331
AD586
  5
AD557
331
AD582
  5
AD57B
331
AD4F3
  5
AD4F3
331
AD437
  5
AD437
331
AD3BD
  5
AD3BD
331
AD42F
  5
AD42F
331
AD46E
  5
AD46E
331
AD46A
  5
AD46A
331
AD3F4
  5
AD3F4
331
AD42B
  5
AD42B
331
AD3F0
  5
AD3F0
331
AD4EF
  5
AD4EF
331
AD4EB
  5
AD4EB
331
AD49C
  5
AD49C
331
AD4E7
  5
AD4E7
331
AD498
  5
AD498
331
AD4E3
  5
AD4E3
331
AD494
  5
AD494
331
AD552
  5
AD552
331
AD490
  5
AD490
331
AD466
  5
AD466
331
AD427
  5
AD427
331
AD423
  5
AD423
331
AD3EC
  5
AD3EC
331
AD462
  5
AD462
331
AD45E
  5
AD45E
331
AD3E8
  5
AD3E8
331
AD41F
  5
AD41F
331
AD41B
  5
AD41B
331
AD3E4
  5
AD3E4
331
AD45A
  5
AD45A
331
AD3E0
  5
AD3E0
331
AD4CB
  5
AD4CB
331
AD48C
  5
AD48C
331
AD54A
  5
AD54A
331
AD546
  5
AD546
331
AD488
  5
AD488
331
AD4C7
  5
AD4C7
331
AD542
  5
AD542
331
AD4C3
  5
AD4C3
331
AD484
  5
AD484
331
AD480
  5
AD480
331
AD417
  5
AD417
331
AD456
  5
AD456
331
AD413
  5
AD413
331
AD3DC
  5
AD3DC
331
AD452
  5
AD452
331
AD40F
  5
AD40F
331
AD3D8
  5
AD3D8
331
AD44E
  5
AD44E
331
AD40B
  5
AD40B
331
AD3D4
  5
AD3D4
331
AD44A
  5
AD44A
331
AD3D0
  5
AD3D0
331
AD4BF
  5
AD4BF
331
AD53E
  5
AD53E
331
AD595
  5
AD595
331
AD47C
  5
AD47C
331
AD4BB
  5
AD4BB
331
AD53A
  5
AD53A
331
AD478
  5
AD478
331
AD4B7
  5
AD4B7
331
AD58D
  5
AD58D
331
AD474
  5
AD474
331
AD470
  5
AD470
331
AD446
  5
AD446
331
AD407
  5
AD407
331
AD442
  5
AD442
331
AD3CC
  5
AD3CC
331
AD403
  5
AD403
331
AD3FF
  5
AD3FF
331
AD43A
  5
AD43A
331
AD3C4
  5
AD3C4
331
AD3FB
  5
AD3FB
331
AD585
  5
AD55B
331
AD581
  5
AD57C
331
AD4F6
  5
AD4F6
331
AD4F2
  5
AD4F2
331
AD436
  5
AD436
331
AD432
  5
AD432
331
AD42E
  5
AD42E
331
AD3F7
  5
AD3F7
331
AD46D
  5
AD46D
331
AD3F3
  5
AD3F3
331
AD42A
  5
AD42A
331
AD469
  5
AD469
331
AD4EE
  5
AD4EE
331
AD49B
  5
AD49B
331
AD4EA
  5
AD4EA
331
AD497
  5
AD497
331
AD4E6
  5
AD4E6
331
AD4E2
  5
AD4E2
331
AD493
  5
AD493
331
AD551
  5
AD551
331
AD426
  5
AD426
331
AD3EF
  5
AD3EF
331
AD465
  5
AD465
331
AD3EB
  5
AD3EB
331
AD422
  5
AD422
331
AD461
  5
AD461
331
AD45D
  5
AD45D
331
AD3E7
  5
AD3E7
331
AD41E
  5
AD41E
331
AD459
  5
AD459
331
AD3E3
  5
AD3E3
331
AD41A
  5
AD41A
331
AD54D
  5
AD54D
331
AD48F
  5
AD48F
331
AD549
  5
AD549
331
AD48B
  5
AD48B
331
AD545
  5
AD545
331
AD4C6
  5
AD4C6
331
AD487
  5
AD487
331
AD59C
  5
AD598
331
AD541
  5
AD541
331
AD4C2
  5
AD4C2
331
AD483
  5
AD483
331
AD598
  5
AD59A
331
AD416
  5
AD416
331
AD3DF
  5
AD3DF
331
AD455
  5
AD455
331
AD412
  5
AD412
331
AD3DB
  5
AD3DB
331
AD451
  5
AD451
331
AD40E
  5
AD40E
331
AD3D7
  5
AD3D7
331
AD44D
  5
AD44D
331
AD40A
  5
AD40A
331
AD449
  5
AD449
331
AD4BE
  5
AD4BE
331
AD47F
  5
AD47F
331
AD53D
  5
AD53D
331
AD594
  5
AD594
331
AD47B
  5
AD47B
331
AD4BA
  5
AD4BA
331
AD539
  5
AD539
331
AD590
  5
AD590
331
AD4B6
  5
AD4B6
331
AD477
  5
AD477
331
AD58C
  5
AD58C
331
AD473
  5
AD473
331
AD4B2
  5
AD4B2
331
AD588
  5
AD588
331
AD406
  5
AD406
331
AD3CF
  5
AD3CF
331
AD445
  5
AD445
331
AD402
  5
AD402
331
AD3CB
  5
AD3CB
331
AD441
  5
AD441
331
AD3FE
  5
AD3FE
331
AD3C7
  5
AD3C7
331
AD3FA
  5
AD3FA
331
AD3C3
  5
AD3C3
331
AD439
  5
AD439
331
AD584
  5
AD55E
331
AD580
  5
AD57D
331
AD4F1
  5
AD4F1
331
AD435
  5
AD435
331
AD431
  5
AD431
331
AD42D
  5
AD42D
331
AD3F6
  5
AD3F6
331
AD46C
  5
AD46C
331
AD429
  5
AD429
331
AD3F2
  5
AD3F2
331
AD468
  5
AD468
331
AD4ED
  5
AD4ED
331
AD49A
  5
AD49A
331
AD4E9
  5
AD4E9
331
AD496
  5
AD496
331
AD4E5
  5
AD4E5
331
AD492
  5
AD492
331
AD4E1
  5
AD4E1
331
AD550
  5
AD550
331
AD425
  5
AD425
331
AD3EE
  5
AD3EE
331
AD464
  5
AD464
331
AD421
  5
AD421
331
AD3EA
  5
AD3EA
331
AD460
  5
AD460
331
AD3E6
  5
AD3E6
331
AD41D
  5
AD41D
331
AD45C
  5
AD45C
331
AD458
  5
AD458
331
AD3E2
  5
AD3E2
331
AD419
  5
AD419
331
AD4CD
  5
AD4CD
331
AD48E
  5
AD48E
331
AD54C
  5
AD54C
331
AD548
  5
AD548
331
AD48A
  5
AD48A
331
AD544
  5
AD544
331
AD4C5
  5
AD4C5
331
AD486
  5
AD486
331
AD59B
  5
AD59C
331
AD540
  5
AD540
331
AD4C1
  5
AD4C1
331
AD482
  5
AD482
331
AD3DE
  5
AD3DE
331
AD415
  5
AD415
331
AD454
  5
AD454
331
AD450
  5
AD450
331
AD3DA
  5
AD3DA
331
AD411
  5
AD411
331
AD44C
  5
AD44C
331
AD3D6
  5
AD3D6
331
AD40D
  5
AD40D
331
AD409
  5
AD409
331
AD4BD
  5
AD4BD
331
AD47E
  5
AD47E
331
AD53C
  5
AD53C
331
AD593
  5
AD593
331
AD58F
  5
AD58F
331
AD4B9
  5
AD4B9
331
AD47A
  5
AD47A
331
AD538
  5
AD538
331
AD4B5
  5
AD4B5
331
AD476
  5
AD476
331
AD4F8
  5
AD4F8
331
AD472
  5
AD472
331
AD405
  5
AD405
331
AD3CE
  5
AD3CE
331
AD444
  5
AD444
331
AD401
  5
AD401
331
AD3CA
  5
AD3CA
331
AD440
  5
AD440
331
AD3FD
  5
AD3FD
331
AD3C6
  5
AD3C6
331
AD43C
  5
AD43C
331
AD3F9
  5
AD3F9
331
AD438
  5
AD438
331
AD587
  5
AD587
331
AD583
  5
AD562
331
AD4F4
  5
AD4F4
331
AD563
  5
AD586
331
AD4F0
  5
AD4F0
331
AD3BE
  5
AD3BE
331
AD434
  5
AD434
331
AD430
  5
AD430
331
AD46F
  5
AD46F
331
AD46B
  5
AD46B
331
AD3F5
  5
AD3F5
331
AD42C
  5
AD42C
331
AD428
  5
AD428
331
AD3F1
  5
AD3F1
331
AD4EC
  5
AD4EC
331
AD49D
  5
AD49D
331
AD55B
  5
AD57E
331
AD557
  5
AD563
331
AD4E8
  5
AD4E8
331
AD499
  5
AD499
331
AD4E4
  5
AD4E4
331
AD495
  5
AD495
331
AD4E0
  5
AD4E0
331
AD491
  5
AD491
331
AD467
  5
AD467
331
AD424
  5
AD424
331
AD3ED
  5
AD3ED
331
AD463
  5
AD463
331
AD420
  5
AD420
331
AD3E9
  5
AD3E9
331
AD45F
  5
AD45F
331
AD41C
  5
AD41C
331
AD3E5
  5
AD3E5
331
AD45B
  5
AD45B
331
AD418
  5
AD418
331
AD3E1
  5
AD3E1
331
AD54F
  5
AD54F
331
AD48D
  5
AD48D
331
AD54B
  5
AD54B
331
AD547
  5
AD547
331
AD489
  5
AD489
331
AD4C8
  5
AD4C8
331
AD4C4
  5
AD4C4
331
AD485
  5
AD485
331
AD543
  5
AD543
331
AD59A
  5
AD59B
331
AD4C0
  5
AD4C0
331
AD481
  5
AD481
331
AD457
  5
AD457
331
AD414
  5
AD414
331
AD453
  5
AD453
331
AD3D9
  5
AD3D9
331
AD410
  5
AD410
331
AD44F
  5
AD44F
331
AD44B
  5
AD44B
331
AD3D5
  5
AD3D5
331
AD40C
  5
AD40C
331
AD3D1
  5
AD3D1
331
AD408
  5
AD408
331
AD53F
  5
AD53F
331
AD596
  5
AD596
331
AD53B
  5
AD53B
331
AD47D
  5
AD47D
331
AD4BC
  5
AD4BC
331
AD592
  5
AD592
331
AD4B8
  5
AD4B8
331
AD479
  5
AD479
331
AD58E
  5
AD58E
331
AD475
  5
AD475
331
AD4B4
  5
AD4B4
331
AD471
  5
AD471
331
AD447
  5
AD447
331
AD443
  5
AD443
331
AD3CD
  5
AD3CD
331
AD404
  5
AD404
331
AD400
  5
AD400
331
AD3C9
  5
AD3C9
331
AD43F
  5
AD43F
331
AD43B
  5
AD43B
331
AD3FC
  5
AD3FC
331
AD3F8
  5
AD3F8
  0
XRECORD
  5
A21B0
102
{ACAD_REACTORS
330
A21AF
102
}
330
A21AF
100
AcDbXrecord
280
     1
 90
        1
340
1DCB0
  0
XRECORD
  5
A21B4
102
{ACAD_REACTORS
330
A21B3
102
}
330
A21B3
100
AcDbXrecord
280
     1
 90
        1
340
A12
  0
XRECORD
  5
AD686
102
{ACAD_REACTORS
330
AD591
102
}
330
AD591
100
AcDbXrecord
280
     1
 40
23988.0
  1
\pxi-3,l4,t4;AS SPECIFIED
  0
XRECORD
  5
AD687
102
{ACAD_REACTORS
330
AD599
102
}
330
AD599
100
AcDbXrecord
280
     1
 40
23988.0
  1
\pxi-3,l4,t4;AS SPECIFIED
  0
XRECORD
  5
AD688
102
{ACAD_REACTORS
330
AD5D8
102
}
330
AD5D8
100
AcDbXrecord
280
     1
 40
158781.0
  1
\pxql;{\fArial|b0|i0|c0|p34;PROFESSIONAL LANDSCAPE DRIPLINE - HEDGE ROW}
  0
XRECORD
  5
A21C8
102
{ACAD_REACTORS
330
A21C7
102
}
330
A21C7
100
AcDbXrecord
280
     1
 90
        1
340
1DCB0
  0
XRECORD
  5
A21CC
102
{ACAD_REACTORS
330
A21CB
102
}
330
A21CB
100
AcDbXrecord
280
     1
 90
        1
340
A12
  0
ACDBDETAILVIEWSTYLE
  5
5C440
102
{ACAD_XDICTIONARY
360
A21DF
102
}
102
{ACAD_REACTORS
330
5C43F
102
}
330
5C43F
100
AcDbModelDocViewStyle
 70
     0
  3
Imperial24
290
     0
100
AcDbDetailViewStyle
 70
     0
 71
     0
 90
        3
 71
     1
340
11
 62
   256
 40
0.24
340
0
 62
   256
 40
0.24
300

 40
0.36
280
     3
 71
     2
340
16
 90
       25
 62
   256
 71
     3
340
11
 62
   256
 40
0.24
 90
        1
 40
0.75
 90
        1
300
%<\AcVar ViewType \f "%tc1">% %<\AcVar ViewDetailId>%\PSCALE %<\AcVar ViewScale \f "%sn">%
 71
     4
340
16
 90
       25
 62
   256
340
16
 90
       25
 62
   256
280
     0
  0
GROUP
  5
AD4A0
102
{ACAD_REACTORS
330
D
102
}
330
D
100
AcDbGroup
300

 70
     1
 71
     1
340
AD459
340
AD458
340
AD457
340
AD456
340
AD455
340
AD454
340
AD453
340
AD452
340
AD451
340
AD450
340
AD44F
340
AD44E
340
AD44D
340
AD44C
340
AD44B
340
AD44A
340
AD449
  0
GROUP
  5
AD4A5
102
{ACAD_REACTORS
330
D
102
}
330
D
100
AcDbGroup
300

 70
     1
 71
     1
340
AD3EE
340
AD3ED
340
AD3EC
340
AD3EB
340
AD3EA
340
AD3E9
340
AD3E8
340
AD3E7
340
AD3E6
340
AD3E5
340
AD3E4
340
AD3E3
340
AD3E2
340
AD3E1
340
AD3E0
340
AD3DF
340
AD3DE
  0
GROUP
  5
AD4A6
102
{ACAD_REACTORS
330
D
102
}
330
D
100
AcDbGroup
300

 70
     1
 71
     1
340
AD3FF
340
AD3FE
340
AD3FD
340
AD3FC
340
AD3FB
340
AD3FA
340
AD3F9
340
AD3F8
340
AD3F7
340
AD3F6
340
AD3F5
340
AD3F4
340
AD3F3
340
AD3F2
340
AD3F1
340
AD3F0
340
AD3EF
  0
GROUP
  5
AD4A7
102
{ACAD_REACTORS
330
D
102
}
330
D
100
AcDbGroup
300

 70
     1
 71
     1
340
AD410
340
AD40F
340
AD40E
340
AD40D
340
AD40C
340
AD40B
340
AD40A
340
AD409
340
AD408
340
AD407
340
AD406
340
AD405
340
AD404
340
AD403
340
AD402
340
AD401
340
AD400
  0
GROUP
  5
AD4A8
102
{ACAD_REACTORS
330
D
102
}
330
D
100
AcDbGroup
300

 70
     1
 71
     1
340
AD421
340
AD420
340
AD41F
340
AD41E
340
AD41D
340
AD41C
340
AD41B
340
AD41A
340
AD419
340
AD418
340
AD417
340
AD416
340
AD415
340
AD414
340
AD413
340
AD412
340
AD411
  0
GROUP
  5
AD4A9
102
{ACAD_REACTORS
330
D
102
}
330
D
100
AcDbGroup
300

 70
     1
 71
     1
340
AD432
340
AD431
340
AD430
340
AD42F
340
AD42E
340
AD42D
340
AD42C
340
AD42B
340
AD42A
340
AD429
340
AD428
340
AD427
340
AD426
340
AD425
340
AD424
340
AD423
340
AD422
  0
GROUP
  5
AD4C9
102
{ACAD_REACTORS
330
D
102
}
330
D
100
AcDbGroup
300

 70
     1
 71
     1
340
AD4C8
340
AD4C7
340
AD4C6
340
AD4C5
340
AD4C4
340
AD4C3
340
AD4C2
340
AD4C1
340
AD4C0
340
AD4BF
340
AD4BE
340
AD4BD
340
AD4BC
340
AD4BB
340
AD4BA
340
AD4B9
340
AD4B8
  0
GROUP
  5
AD4F5
102
{ACAD_REACTORS
330
D
102
}
330
D
100
AcDbGroup
300

 70
     1
 71
     1
340
AD4F4
340
AD4F3
340
AD4F2
340
AD4F1
340
AD4F0
340
AD4EF
340
AD4EE
340
AD4ED
340
AD4EC
340
AD4EB
340
AD4EA
340
AD4E9
340
AD4E8
340
AD4E7
340
AD4E6
340
AD4E5
340
AD4E4
  0
GROUP
  5
AD54E
102
{ACAD_REACTORS
330
D
102
}
330
D
100
AcDbGroup
300

 70
     1
 71
     1
340
AD54D
340
AD54C
340
AD54B
340
AD54A
340
AD549
340
AD548
340
AD547
340
AD546
340
AD545
340
AD544
340
AD543
340
AD542
340
AD541
340
AD540
340
AD53F
340
AD53E
340
AD53D
  0
GROUP
  5
AD4A1
102
{ACAD_REACTORS
330
D
102
}
330
D
100
AcDbGroup
300

 70
     1
 71
     1
340
AD46A
340
AD469
340
AD468
340
AD467
340
AD466
340
AD465
340
AD464
340
AD463
340
AD462
340
AD461
340
AD460
340
AD45F
340
AD45E
340
AD45D
340
AD45C
340
AD45B
340
AD45A
  0
GROUP
  5
AD4A2
102
{ACAD_REACTORS
330
D
102
}
330
D
100
AcDbGroup
300

 70
     1
 71
     1
340
AD47B
340
AD47A
340
AD479
340
AD478
340
AD477
340
AD476
340
AD475
340
AD474
340
AD473
340
AD472
340
AD471
340
AD470
340
AD46F
340
AD46E
340
AD46D
340
AD46C
340
AD46B
  0
GROUP
  5
AD4A3
102
{ACAD_REACTORS
330
D
102
}
330
D
100
AcDbGroup
300

 70
     1
 71
     1
340
AD48C
340
AD48B
340
AD48A
340
AD489
340
AD488
340
AD487
340
AD486
340
AD485
340
AD484
340
AD483
340
AD482
340
AD481
340
AD480
340
AD47F
340
AD47E
340
AD47D
340
AD47C
  0
GROUP
  5
AD4A4
102
{ACAD_REACTORS
330
D
102
}
330
D
100
AcDbGroup
300

 70
     1
 71
     1
340
AD49D
340
AD49C
340
AD49B
340
AD49A
340
AD499
340
AD498
340
AD497
340
AD496
340
AD495
340
AD494
340
AD493
340
AD492
340
AD491
340
AD490
340
AD48F
340
AD48E
340
AD48D
  0
LAYOUT
  5
A21A1
102
{ACAD_REACTORS
330
1A
102
}
330
1A
100
AcDbPlotSettings
  1

  2
DWG To PDF.pc3
  4
ANSI_A_(8.50_x_11.00_Inches)
  6

 40
5.793749809265136
 41
17.79375076293945
 42
5.793746948242187
 43
17.79376220703125
 44
215.8999938964844
 45
279.3999938964844
 46
0.0
 47
0.0
 48
0.0
 49
0.0
140
0.0
141
0.0
142
1.0
143
1.0
 70
   688
 72
     0
 73
     1
 74
     5
  7
Standard Pen Settings.ctb
 75
    16
147
1.0
 76
     0
 77
     2
 78
   300
148
0.0
149
0.0
100
AcDbLayout
  1
8.5 X 11
 70
     1
 71
     1
 10
-0.7005418191744587
 20
-0.2281003861915408
 11
10.29945794052965
 21
8.271899373512569
 12
0.0
 22
0.0
 32
0.0
 14
0.0460402222469014
 24
0.0401186204693573
 34
-0.0015258207003583
 15
9.568821384571574
 25
7.999140916809832
 35
0.0000000349246037
146
0.0
 13
0.0
 23
0.0
 33
0.0
 16
1.0
 26
0.0
 36
0.0
 17
0.0
 27
1.0
 37
0.0
 76
     0
330
A21A0
331
A21AE
1001
ACAD_PSEXT
1000
DWG To PDF.pc3
1000
DWG To PDF
1000
File
1000

1070
     0
  0
LAYOUT
  5
A21B9
102
{ACAD_REACTORS
330
1A
102
}
330
1A
100
AcDbPlotSettings
  1

  2
DWG To PDF.pc3
  4
ISO_A4_(210.00_x_297.00_MM)
  6

 40
5.793749809265136
 41
17.79375076293945
 42
5.793746948242187
 43
17.79376220703125
 44
210.0
 45
297.0
 46
0.0
 47
0.0
 48
0.0
 49
0.0
140
0.0
141
0.0
142
1.0
143
0.0393700787401575
 70
   672
 72
     1
 73
     1
 74
     5
  7
Standard Pen Settings.ctb
 75
    16
147
25.4
 76
     0
 77
     2
 78
   300
148
0.0
149
0.0
100
AcDbLayout
  1
A4
 70
     1
 71
     2
 10
-0.7005418191744587
 20
-0.2281003861915408
 11
10.99237156665231
 21
8.039616149241531
 12
0.0
 22
0.0
 32
0.0
 14
0.0145643619954186
 24
0.0132348038147043
 34
-0.0015258207003583
 15
10.27458914444549
 25
7.796388667592996
 35
0.0000000349246037
146
0.0
 13
0.0
 23
0.0
 33
0.0
 16
1.0
 26
0.0
 36
0.0
 17
0.0
 27
1.0
 37
0.0
 76
     0
330
A21B8
331
A21C6
1001
ACAD_PSEXT
1000
DWG To PDF.pc3
1000
DWG To PDF
1000
File
1000

1070
     0
  0
LAYOUT
  5
22
102
{ACAD_XDICTIONARY
360
66EB6
102
}
102
{ACAD_REACTORS
330
1A
102
}
330
1A
100
AcDbPlotSettings
  1

  2
DWG To PDF.pc3
  4
ANSI_full_bleed_A_(8.50_x_11.00_Inches)
  6

 40
0.7937499880790711
 41
0.7937499880790711
 42
0.7937469482421875
 43
0.79376220703125
 44
215.8999938964844
 45
279.3999938964844
 46
30.37052290086102
 47
0.0
 48
-146.9342066687381
 49
-1.639012634498612
140
-81.17209046769231
141
34.71350671378767
142
1.0
143
6.012536734408003
 70
 11956
 72
     0
 73
     1
 74
     4
  7
Standard Pen Settings.ctb
 75
     0
147
0.1663191501645703
 76
     0
 77
     2
 78
   300
148
3732.128849385947
149
41.63092091626476
100
AcDbLayout
  1
Model
 70
     1
 71
     0
 10
0.0
 20
0.0
 11
12.0
 21
9.0
 12
0.0
 22
0.0
 32
0.0
 14
0.0
 24
0.0
 34
0.0
 15
0.0
 25
0.0
 35
0.0
146
0.0
 13
0.0
 23
0.0
 33
0.0
 16
1.0
 26
0.0
 36
0.0
 17
0.0
 27
1.0
 37
0.0
 76
     0
330
1F
331
DAB
1001
ACAD_PSEXT
1000
DWG To PDF.pc3
1000
DWG To PDF
1000
File
1000

1070
     0
  0
MATERIAL
  5
97
102
{ACAD_REACTORS
330
72
102
}
330
72
100
AcDbMaterial
  1
ByBlock
 73
     1
 78
     1
172
     1
176
     1
270
     1
274
     1
 94
       63
  0
MATERIAL
  5
96
102
{ACAD_REACTORS
330
72
102
}
330
72
100
AcDbMaterial
  1
ByLayer
 73
     1
 78
     1
172
     1
176
     1
270
     1
274
     1
 94
       63
  0
MATERIAL
  5
98
102
{ACAD_REACTORS
330
72
102
}
330
72
100
AcDbMaterial
  1
Global
 73
     1
 78
     1
172
     1
176
     1
270
     1
274
     1
 94
       63
  0
MLEADERSTYLE
  5
A34
102
{ACAD_REACTORS
330
A33
102
}
330
A33
100
AcDbMLeaderStyle
179
     2
170
     2
171
     1
172
     0
 90
        2
 40
0.0
 41
0.0
173
     1
 91
-1056964608
340
14
 92
       -2
290
     1
 42
0.09
291
     1
 43
0.36
  3
Standard
 44
0.18
300

342
11
174
     1
178
     6
175
     1
176
     0
 93
-1056964608
 45
0.18
292
     0
297
     0
 46
0.18
 94
-1056964608
 47
1.0
 49
1.0
140
1.0
293
     1
141
0.0
294
     1
177
     0
142
1.0
295
     0
296
     0
143
0.125
271
     0
272
     9
273
     9
298
     0
  0
MLINESTYLE
  5
18
102
{ACAD_REACTORS
330
17
102
}
330
17
100
AcDbMlineStyle
  2
STANDARD
 70
     0
  3

 62
   256
 51
90.0
 52
90.0
 71
     2
 49
0.5
 62
   256
  6
BYLAYER
 49
-0.5
 62
   256
  6
BYLAYER
  0
PLOTSETTINGS
  5
E0
102
{ACAD_REACTORS
330
19
102
}
330
19
100
AcDbPlotSettings
  1
500 - 24x36
  2
HP DesignJet 500 42 by HP.pc3
  4
User1659
  6

 40
0.0
 41
0.0
 42
0.0
 43
0.0
 44
914.4000244140626
 45
609.6000366210937
 46
0.0000122070312948
 47
0.000018310546897
 48
0.0
 49
0.0
140
36.0
141
24.0
142
1.0
143
1.0
 70
  2740
 72
     0
 73
     0
 74
     4
  7
DVD 2005.ctb
 75
    16
147
1.0
 76
     0
 77
     2
 78
   300
148
0.0
149
0.0
1001
ACAD_PSEXT
1000
HP DesignJet 500 42 by HP.pc3
1000
HP DesignJet 500 42 by HP
1000
\\bobxp2
1000

1070
     0
  0
PLOTSETTINGS
  5
DE
102
{ACAD_REACTORS
330
19
102
}
330
19
100
AcDbPlotSettings
  1
500 - 30x42 Landscape
  2
HP DesignJet 500 42 by HP.pc3
  4
User637
  6

 40
0.0
 41
0.0
 42
0.0
 43
0.0
 44
762.0
 45
1066.800048828125
 46
-0.0000000000000902
 47
0.0000244140624993
 48
-44.0
 49
0.0000000000000071
140
-2.0
141
30.00000000000002
142
1.0
143
1.0
 70
  2804
 72
     0
 73
     1
 74
     4
  7
DVD 2005.ctb
 75
    16
147
1.0
 76
     0
 77
     2
 78
   300
148
1117.6
149
-0.0000000000001805
1001
ACAD_PSEXT
1000
HP DesignJet 500 42 by HP.pc3
1000
HP DesignJet 500 42 by HP
1000
\\bobxp2
1000

1070
     0
  0
PLOTSETTINGS
  5
DF
102
{ACAD_REACTORS
330
19
102
}
330
19
100
AcDbPlotSettings
  1
500 - 30x42 Portrait
  2
HP DesignJet 500 42 by HP.pc3
  4
User637
  6

 40
0.0
 41
0.0
 42
0.0
 43
0.0
 44
762.0
 45
1066.800048828125
 46
-0.0000000000000902
 47
0.0000244140626798
 48
-38.0
 49
34.00000000000002
140
-7.999999999999992
141
76.0
142
1.0
143
1.0
 70
  2804
 72
     0
 73
     0
 74
     4
  7
DVD 2005.ctb
 75
    16
147
1.0
 76
     0
 77
     2
 78
   300
148
965.1999999999999
149
-863.6000000000004
1001
ACAD_PSEXT
1000
HP DesignJet 500 42 by HP.pc3
1000
HP DesignJet 500 42 by HP
1000
\\bobxp2
1000

1070
     0
  0
PLOTSETTINGS
  5
1052
102
{ACAD_REACTORS
330
19
102
}
330
19
100
AcDbPlotSettings
  1
6200 8.5x11
  2
HP Officejet 6200 series (Copy 1)
  4
Letter
  6

 40
3.96875
 41
3.799404859542846
 42
3.968734741210937
 43
3.17498779296875
 44
215.8999938964844
 45
279.3999938964844
 46
0.0
 47
0.0
 48
0.0
 49
0.0
140
0.0
141
0.0
142
1.0
143
1.0
 70
 15024
 72
     0
 73
     1
 74
     5
  7
DVD 2005.ctb
 75
    16
147
1.0
 76
     0
 77
     2
 78
   300
148
0.0
149
0.0
1001
ACAD_PSEXT
1000
HP Officejet 6200 series (Copy 1)
1000
HP Officejet 6200 series
1000
USB002
1000

1070
     0
  0
PLOTSETTINGS
  5
E1
102
{ACAD_REACTORS
330
19
102
}
330
19
100
AcDbPlotSettings
  1
9800 - 11x17 Reduced
  2
HP Deskjet 9800 Series.pc3
  4
Tabloid
  6

 40
4.011083126068115
 41
15.65274238586425
 42
4.011077880859375
 43
3.17498779296875
 44
279.3999938964844
 45
431.7999877929687
 46
0.0
 47
2.952754139900229
 48
0.0
 49
0.0
140
36.0
141
24.0
142
1.0
143
2.246314643717012
 70
  2740
 72
     0
 73
     1
 74
     4
  7
DVD 2005.ctb
 75
     0
147
0.4451736103831314
 76
     0
 77
     2
 78
   300
148
0.0
149
0.0
1001
ACAD_PSEXT
1000
HP Deskjet 9800 Series.pc3
1000
HP Deskjet 9800 Series
1000
\\Server
1000

1070
     0
  0
PLOTSETTINGS
  5
E2
102
{ACAD_REACTORS
330
19
102
}
330
19
100
AcDbPlotSettings
  1
K550 - 8x11 Reduced
  2
HP Officejet Pro K550 Series.pc3
  4
Letter
  6

 40
4.095749855041503
 41
12.73173427581787
 42
4.095748901367187
 43
4.09576416015625
 44
215.8999938964844
 45
279.3999938964844
 46
16.3300824165344
 47
0.0
 48
0.0
 49
0.0
140
36.0
141
24.0
142
1.0
143
3.482466807486017
 70
  2804
 72
     0
 73
     1
 74
     4
  7
DVD 2005.ctb
 75
     0
147
0.2871527728133314
 76
     0
 77
     2
 78
   300
148
0.0
149
0.0
1001
ACAD_PSEXT
1000
HP Officejet Pro K550 Series.pc3
1000
HP Officejet Pro K550 Series
1000
Next to Jodi
1000

1070
     0
  0
ACDBPLACEHOLDER
  5
F
102
{ACAD_REACTORS
330
E
102
}
330
E
  0
DICTIONARY
  5
A15E6
330
A15E5
100
AcDbDictionary
280
     1
281
     1
  3
ADSK_XREC_MENTALRAYSETTINGSINFO
360
A15E7
  0
SCALE
  5
4D48B
102
{ACAD_REACTORS
330
A11
102
}
330
A11
100
AcDbScale
 70
     0
300
1" = 40'
140
1.0
141
40.0
290
     0
  0
SCALE
  5
4D48C
102
{ACAD_REACTORS
330
A11
102
}
330
A11
100
AcDbScale
 70
     0
300
1" = 1'
140
1.0
141
1.0
290
     0
  0
SCALE
  5
5C55A
102
{ACAD_REACTORS
330
A11
102
}
330
A11
100
AcDbScale
 70
     0
300
1" =10'_XREF
140
1.0
141
10.0
290
     0
  0
SCALE
  5
5C55B
102
{ACAD_REACTORS
330
A11
102
}
330
A11
100
AcDbScale
 70
     0
300
2" = 1'-0"_XREF
140
2.0
141
12.0
290
     0
  0
SCALE
  5
A12
102
{ACAD_REACTORS
330
A11
102
}
330
A11
100
AcDbScale
 70
     0
300
1:1
140
1.0
141
1.0
290
     0
  0
SCALE
  5
1DC91
102
{ACAD_REACTORS
330
A11
102
}
330
A11
100
AcDbScale
 70
     0
300
1:2
140
1.0
141
2.0
290
     0
  0
SCALE
  5
1DC92
102
{ACAD_REACTORS
330
A11
102
}
330
A11
100
AcDbScale
 70
     0
300
1:4
140
1.0
141
4.0
290
     0
  0
SCALE
  5
1DC93
102
{ACAD_REACTORS
330
A11
102
}
330
A11
100
AcDbScale
 70
     0
300
1:5
140
1.0
141
5.0
290
     0
  0
SCALE
  5
1DC94
102
{ACAD_REACTORS
330
A11
102
}
330
A11
100
AcDbScale
 70
     0
300
1:8
140
1.0
141
8.0
290
     0
  0
SCALE
  5
1DC95
102
{ACAD_REACTORS
330
A11
102
}
330
A11
100
AcDbScale
 70
     0
300
1:10
140
1.0
141
10.0
290
     0
  0
SCALE
  5
1DC96
102
{ACAD_REACTORS
330
A11
102
}
330
A11
100
AcDbScale
 70
     0
300
1:16
140
1.0
141
16.0
290
     0
  0
SCALE
  5
1DC97
102
{ACAD_REACTORS
330
A11
102
}
330
A11
100
AcDbScale
 70
     0
300
1:20
140
1.0
141
20.0
290
     0
  0
SCALE
  5
1DC98
102
{ACAD_REACTORS
330
A11
102
}
330
A11
100
AcDbScale
 70
     0
300
1:30
140
1.0
141
30.0
290
     0
  0
SCALE
  5
1DC99
102
{ACAD_REACTORS
330
A11
102
}
330
A11
100
AcDbScale
 70
     0
300
1:40
140
1.0
141
40.0
290
     0
  0
SCALE
  5
1DC9A
102
{ACAD_REACTORS
330
A11
102
}
330
A11
100
AcDbScale
 70
     0
300
1:50
140
1.0
141
50.0
290
     0
  0
SCALE
  5
1DC9B
102
{ACAD_REACTORS
330
A11
102
}
330
A11
100
AcDbScale
 70
     0
300
1:100
140
1.0
141
100.0
290
     0
  0
SCALE
  5
1DC9C
102
{ACAD_REACTORS
330
A11
102
}
330
A11
100
AcDbScale
 70
     0
300
2:1
140
2.0
141
1.0
290
     0
  0
SCALE
  5
1DC9D
102
{ACAD_REACTORS
330
A11
102
}
330
A11
100
AcDbScale
 70
     0
300
4:1
140
4.0
141
1.0
290
     0
  0
SCALE
  5
1DC9E
102
{ACAD_REACTORS
330
A11
102
}
330
A11
100
AcDbScale
 70
     0
300
8:1
140
8.0
141
1.0
290
     0
  0
SCALE
  5
1DC9F
102
{ACAD_REACTORS
330
A11
102
}
330
A11
100
AcDbScale
 70
     0
300
10:1
140
10.0
141
1.0
290
     0
  0
SCALE
  5
1DCA0
102
{ACAD_REACTORS
330
A11
102
}
330
A11
100
AcDbScale
 70
     0
300
100:1
140
100.0
141
1.0
290
     0
  0
SCALE
  5
1DCA1
102
{ACAD_REACTORS
330
A11
102
}
330
A11
100
AcDbScale
 70
     0
300
1/128" = 1'-0"
140
0.0078125
141
12.0
290
     0
  0
SCALE
  5
1DCA2
102
{ACAD_REACTORS
330
A11
102
}
330
A11
100
AcDbScale
 70
     0
300
1/64" = 1'-0"
140
0.015625
141
12.0
290
     0
  0
SCALE
  5
1DCA3
102
{ACAD_REACTORS
330
A11
102
}
330
A11
100
AcDbScale
 70
     0
300
1/32" = 1'-0"
140
0.03125
141
12.0
290
     0
  0
SCALE
  5
1DCA4
102
{ACAD_REACTORS
330
A11
102
}
330
A11
100
AcDbScale
 70
     0
300
1/16" = 1'-0"
140
0.0625
141
12.0
290
     0
  0
SCALE
  5
1DCA5
102
{ACAD_REACTORS
330
A11
102
}
330
A11
100
AcDbScale
 70
     0
300
3/32" = 1'-0"
140
0.09375
141
12.0
290
     0
  0
SCALE
  5
1DCA6
102
{ACAD_REACTORS
330
A11
102
}
330
A11
100
AcDbScale
 70
     0
300
1/8" = 1'-0"
140
0.125
141
12.0
290
     0
  0
SCALE
  5
1DCA7
102
{ACAD_REACTORS
330
A11
102
}
330
A11
100
AcDbScale
 70
     0
300
3/16" = 1'-0"
140
0.1875
141
12.0
290
     0
  0
SCALE
  5
1DCA8
102
{ACAD_REACTORS
330
A11
102
}
330
A11
100
AcDbScale
 70
     0
300
1/4" = 1'-0"
140
0.25
141
12.0
290
     0
  0
SCALE
  5
1DCA9
102
{ACAD_REACTORS
330
A11
102
}
330
A11
100
AcDbScale
 70
     0
300
3/8" = 1'-0"
140
0.375
141
12.0
290
     0
  0
SCALE
  5
1DCAA
102
{ACAD_REACTORS
330
A11
102
}
330
A11
100
AcDbScale
 70
     0
300
1/2" = 1'-0"
140
0.5
141
12.0
290
     0
  0
SCALE
  5
1DCAB
102
{ACAD_REACTORS
330
A11
102
}
330
A11
100
AcDbScale
 70
     0
300
3/4" = 1'-0"
140
0.75
141
12.0
290
     0
  0
SCALE
  5
1DCAC
102
{ACAD_REACTORS
330
A11
102
}
330
A11
100
AcDbScale
 70
     0
300
1" = 1'-0"
140
1.0
141
12.0
290
     0
  0
SCALE
  5
1DCAD
102
{ACAD_REACTORS
330
A11
102
}
330
A11
100
AcDbScale
 70
     0
300
1-1/2" = 1'-0"
140
1.5
141
12.0
290
     0
  0
SCALE
  5
1DCAE
102
{ACAD_REACTORS
330
A11
102
}
330
A11
100
AcDbScale
 70
     0
300
3" = 1'-0"
140
3.0
141
12.0
290
     0
  0
SCALE
  5
1DCAF
102
{ACAD_REACTORS
330
A11
102
}
330
A11
100
AcDbScale
 70
     0
300
6" = 1'-0"
140
6.0
141
12.0
290
     0
  0
SCALE
  5
1DCB0
102
{ACAD_REACTORS
330
A11
102
}
330
A11
100
AcDbScale
 70
     0
300
1'-0" = 1'-0"
140
12.0
141
12.0
290
     1
  0
ACDBSECTIONVIEWSTYLE
  5
5C43E
102
{ACAD_XDICTIONARY
360
A21DD
102
}
102
{ACAD_REACTORS
330
5C43D
102
}
330
5C43D
100
AcDbModelDocViewStyle
 70
     0
  3
Imperial24
290
     0
100
AcDbSectionViewStyle
 70
     0
 71
     0
 90
       78
 71
     1
340
11
 62
   256
 40
0.24
340
0
340
0
 62
   256
 40
0.24
300
I, O, Q, S, X, Z
 40
0.48
 90
        3
 40
0.18
 90
        1
 71
     2
340
16
 90
       25
 62
   256
340
16
 90
       50
 62
   256
 40
0.24
 40
0.0
 40
0.24
 71
     3
340
11
 62
   256
 40
0.24
 90
        1
 40
0.75
 90
        1
300
%<\AcVar ViewType \f "%tc1">% %<\AcVar ViewSectionStartId>%-%<\AcVar ViewSectionEndId>%\PSCALE %<\AcVar ViewScale \f "%sn">%
 71
     4
 62
   256
 62
   257
300
ANSI31
 40
1.0
 90
        0
290
     0
290
     0
 90
        6
 40
0.0
 40
1.570796326794896
 40
0.2617993877991494
 40
1.308996938995747
 40
-0.2617993877991494
 40
1.832595714594046
  0
TABLESTYLE
  5
87
102
{ACAD_XDICTIONARY
360
B4E
102
}
102
{ACAD_REACTORS
330
86
102
}
330
86
100
AcDbTableStyle
280
     0
  3
Standard
 70
     0
 71
     0
 40
0.06
 41
0.06
280
     0
281
     0
  7
Standard
140
0.18
170
     2
 62
     0
 63
     7
283
     0
 90
      512
 91
        0
  1

274
    -2
284
     1
 64
     0
275
    -2
285
     1
 65
     0
276
    -2
286
     1
 66
     0
277
    -2
287
     1
 67
     0
278
    -2
288
     1
 68
     0
279
    -2
289
     1
 69
     0
  7
Standard
140
0.25
170
     5
 62
     0
 63
     7
283
     0
 90
      512
 91
        0
  1

274
    -2
284
     1
 64
     0
275
    -2
285
     1
 65
     0
276
    -2
286
     1
 66
     0
277
    -2
287
     1
 67
     0
278
    -2
288
     1
 68
     0
279
    -2
289
     1
 69
     0
  7
Standard
140
0.18
170
     5
 62
     0
 63
     7
283
     0
 90
      512
 91
        0
  1

274
    -2
284
     1
 64
     0
275
    -2
285
     1
 65
     0
276
    -2
286
     1
 66
     0
277
    -2
287
     1
 67
     0
278
    -2
288
     1
 68
     0
279
    -2
289
     1
 69
     0
  0
VISUALSTYLE
  5
9F
102
{ACAD_REACTORS
330
99
102
}
330
99
100
AcDbVisualStyle
  2
2dWireframe
 70
     4
177
     3
291
     0
 70
    58
 90
        0
176
     1
 90
        2
176
     1
 90
        1
176
     1
 90
        0
176
     1
 40
0.6
176
     1
 40
30.0
176
     1
 62
     7
420
 16777215
176
     1
 90
        1
176
     1
 90
        4
176
     1
 62
     7
176
     1
 62
   257
176
     1
 90
        1
176
     1
 90
        1
176
     1
 40
1.0
176
     1
 90
        0
176
     1
 62
   257
176
     1
 40
1.0
176
     1
 90
        1
176
     1
 90
        6
176
     1
 90
        2
176
     1
 62
     7
176
     1
 90
        5
176
     1
 90
        0
176
     1
 90
        0
176
     1
290
     0
176
     1
 90
        1
176
     1
 40
0.0
176
     1
 90
        0
176
     1
290
     1
176
     1
290
     1
176
     1
290
     0
176
     1
290
     0
176
     1
290
     0
176
     1
290
     0
176
     1
290
     0
176
     1
290
     0
176
     1
290
     0
176
     1
 90
       50
176
     1
 40
0.0
176
     1
 40
1.0
176
     1
 90
        0
176
     1
 62
    18
420
        0
176
     1
 90
       50
176
     1
 90
        3
176
     1
 62
     5
420
      255
176
     1
290
     0
176
     1
 90
       50
176
     1
 90
       50
176
     1
 90
       50
176
     1
290
     0
176
     1
 90
       50
176
     1
 62
   256
176
     0
 40
1.0
176
     0
 90
        2
176
     1
  1
strokes_ogs.tif
176
     1
290
     0
176
     1
 40
1.0
176
     1
 40
1.0
176
     1
  0
VISUALSTYLE
  5
A1
102
{ACAD_REACTORS
330
99
102
}
330
99
100
AcDbVisualStyle
  2
3D Hidden
 70
     6
177
     3
291
     0
 70
    58
 90
        1
176
     1
 90
        2
176
     1
 90
        2
176
     1
 90
        0
176
     1
 40
0.6
176
     1
 40
30.0
176
     1
 62
     7
420
 16777215
176
     1
 90
        2
176
     1
 90
        2
176
     1
 62
     7
176
     1
 62
   257
176
     1
 90
        2
176
     1
 90
        1
176
     1
 40
40.0
176
     1
 90
        0
176
     1
 62
   257
176
     1
 40
1.0
176
     1
 90
        1
176
     1
 90
        6
176
     1
 90
        2
176
     1
 62
     7
176
     1
 90
        3
176
     1
 90
        0
176
     1
 90
        0
176
     1
290
     0
176
     1
 90
        1
176
     1
 40
0.0
176
     1
 90
        0
176
     1
290
     0
176
     1
290
     1
176
     1
290
     1
176
     1
290
     0
176
     1
290
     0
176
     1
290
     0
176
     1
290
     0
176
     1
290
     0
176
     1
290
     0
176
     1
 90
       50
176
     1
 40
0.0
176
     1
 40
1.0
176
     1
 90
        0
176
     1
 62
    18
420
        0
176
     1
 90
       50
176
     1
 90
        3
176
     1
 62
     5
420
      255
176
     1
290
     0
176
     1
 90
       50
176
     1
 90
       50
176
     1
 90
       50
176
     1
290
     0
176
     1
 90
       50
176
     1
 62
   256
176
     0
 40
1.0
176
     0
 90
        2
176
     1
  1
strokes_ogs.tif
176
     1
290
     0
176
     1
 40
1.0
176
     1
 40
1.0
176
     1
  0
VISUALSTYLE
  5
A0
102
{ACAD_REACTORS
330
99
102
}
330
99
100
AcDbVisualStyle
  2
3dWireframe
 70
     5
177
     3
291
     0
 70
    58
 90
        0
176
     1
 90
        2
176
     1
 90
        1
176
     1
 90
        0
176
     1
 40
0.6
176
     1
 40
30.0
176
     1
 62
     7
420
 16777215
176
     1
 90
        1
176
     1
 90
        4
176
     1
 62
     7
176
     1
 62
   257
176
     1
 90
        1
176
     1
 90
        1
176
     1
 40
1.0
176
     1
 90
        0
176
     1
 62
   257
176
     1
 40
1.0
176
     1
 90
        1
176
     1
 90
        6
176
     1
 90
        2
176
     1
 62
     7
176
     1
 90
        5
176
     1
 90
        0
176
     1
 90
        0
176
     1
290
     0
176
     1
 90
        1
176
     1
 40
0.0
176
     1
 90
        0
176
     1
290
     0
176
     1
290
     1
176
     1
290
     1
176
     1
290
     0
176
     1
290
     0
176
     1
290
     0
176
     1
290
     0
176
     1
290
     0
176
     1
290
     0
176
     1
 90
       50
176
     1
 40
0.0
176
     1
 40
1.0
176
     1
 90
        0
176
     1
 62
    18
420
        0
176
     1
 90
       50
176
     1
 90
        3
176
     1
 62
     5
420
      255
176
     1
290
     0
176
     1
 90
       50
176
     1
 90
       50
176
     1
 90
       50
176
     1
290
     0
176
     1
 90
       50
176
     1
 62
   256
176
     0
 40
1.0
176
     0
 90
        2
176
     1
  1
strokes_ogs.tif
176
     1
290
     0
176
     1
 40
1.0
176
     1
 40
1.0
176
     1
  0
VISUALSTYLE
  5
9E
102
{ACAD_REACTORS
330
99
102
}
330
99
100
AcDbVisualStyle
  2
Basic
 70
     7
177
     3
291
     1
 70
    58
 90
        1
176
     1
 90
        0
176
     1
 90
        1
176
     1
 90
        0
176
     1
 40
0.6
176
     1
 40
30.0
176
     1
 62
     7
420
 16777215
176
     1
 90
        0
176
     1
 90
        4
176
     1
 62
     7
176
     1
 62
   257
176
     1
 90
        1
176
     1
 90
        1
176
     1
 40
1.0
176
     1
 90
        8
176
     1
 62
     7
176
     1
 40
1.0
176
     1
 90
        1
176
     1
 90
        6
176
     1
 90
        2
176
     1
 62
     7
176
     1
 90
        5
176
     1
 90
        0
176
     1
 90
        0
176
     1
290
     0
176
     1
 90
        1
176
     1
 40
0.0
176
     1
 90
        0
176
     1
290
     0
176
     1
290
     1
176
     1
290
     1
176
     1
290
     0
176
     1
290
     0
176
     1
290
     0
176
     1
290
     0
176
     1
290
     0
176
     1
290
     0
176
     1
 90
       50
176
     1
 40
0.0
176
     1
 40
1.0
176
     1
 90
        0
176
     1
 62
    18
420
        0
176
     1
 90
       50
176
     1
 90
        3
176
     1
 62
     5
420
      255
176
     1
290
     0
176
     1
 90
       50
176
     1
 90
       50
176
     1
 90
       50
176
     1
290
     0
176
     1
 90
       50
176
     1
 62
   256
176
     0
 40
1.0
176
     0
 90
        2
176
     1
  1
strokes_ogs.tif
176
     1
290
     0
176
     1
 40
1.0
176
     1
 40
1.0
176
     1
  0
VISUALSTYLE
  5
A5
102
{ACAD_REACTORS
330
99
102
}
330
99
100
AcDbVisualStyle
  2
Brighten
 70
    12
177
     3
291
     1
 70
    58
 90
        2
176
     1
 90
        2
176
     1
 90
        1
176
     1
 90
        0
176
     1
 40
0.6
176
     1
 40
30.0
176
     1
 62
     7
420
 16777215
176
     1
 90
        1
176
     1
 90
        4
176
     1
 62
     7
176
     1
 62
   257
176
     1
 90
        1
176
     1
 90
        1
176
     1
 40
1.0
176
     1
 90
        8
176
     1
 62
     7
176
     1
 40
1.0
176
     1
 90
        1
176
     1
 90
        6
176
     1
 90
        2
176
     1
 62
     7
176
     1
 90
        5
176
     1
 90
        0
176
     1
 90
        0
176
     1
290
     0
176
     1
 90
        1
176
     1
 40
50.0
176
     1
 90
        0
176
     1
290
     0
176
     1
290
     1
176
     1
290
     1
176
     1
290
     0
176
     1
290
     0
176
     1
290
     0
176
     1
290
     0
176
     1
290
     0
176
     1
290
     0
176
     1
 90
       50
176
     1
 40
0.0
176
     1
 40
1.0
176
     1
 90
        0
176
     1
 62
    18
420
        0
176
     1
 90
       50
176
     1
 90
        3
176
     1
 62
     5
420
      255
176
     1
290
     0
176
     1
 90
       50
176
     1
 90
       50
176
     1
 90
       50
176
     1
290
     0
176
     1
 90
       50
176
     1
 62
   256
176
     0
 40
1.0
176
     0
 90
        2
176
     1
  1
strokes_ogs.tif
176
     1
290
     0
176
     1
 40
1.0
176
     1
 40
1.0
176
     1
  0
VISUALSTYLE
  5
A9
102
{ACAD_REACTORS
330
99
102
}
330
99
100
AcDbVisualStyle
  2
ColorChange
 70
    16
177
     3
291
     1
 70
    58
 90
        2
176
     1
 90
        2
176
     1
 90
        3
176
     1
 90
        0
176
     1
 40
0.6
176
     1
 40
30.0
176
     1
 62
     8
420
  8421504
176
     1
 90
        1
176
     1
 90
        4
176
     1
 62
     7
176
     1
 62
   257
176
     1
 90
        1
176
     1
 90
        1
176
     1
 40
1.0
176
     1
 90
        8
176
     1
 62
     8
420
  8421504
176
     1
 40
1.0
176
     1
 90
        1
176
     1
 90
        6
176
     1
 90
        2
176
     1
 62
     7
176
     1
 90
        5
176
     1
 90
        0
176
     1
 90
        0
176
     1
290
     0
176
     1
 90
        1
176
     1
 40
0.0
176
     1
 90
        0
176
     1
290
     0
176
     1
290
     1
176
     1
290
     1
176
     1
290
     0
176
     1
290
     0
176
     1
290
     0
176
     1
290
     0
176
     1
290
     0
176
     1
290
     0
176
     1
 90
       50
176
     1
 40
0.0
176
     1
 40
1.0
176
     1
 90
        0
176
     1
 62
    18
420
        0
176
     1
 90
       50
176
     1
 90
        3
176
     1
 62
     5
420
      255
176
     1
290
     0
176
     1
 90
       50
176
     1
 90
       50
176
     1
 90
       50
176
     1
290
     0
176
     1
 90
       50
176
     1
 62
   256
176
     0
 40
1.0
176
     0
 90
        2
176
     1
  1
strokes_ogs.tif
176
     1
290
     0
176
     1
 40
1.0
176
     1
 40
1.0
176
     1
  0
VISUALSTYLE
  5
A2
102
{ACAD_REACTORS
330
99
102
}
330
99
100
AcDbVisualStyle
  2
Conceptual
 70
     9
177
     3
291
     0
 70
    58
 90
        3
176
     1
 90
        2
176
     1
 90
        1
176
     1
 90
        0
176
     1
 40
0.6
176
     1
 40
30.0
176
     1
 62
     7
420
 16777215
176
     1
 90
        2
176
     1
 90
        2
176
     1
 62
     7
176
     1
 62
   257
176
     1
 90
        1
176
     1
 90
        1
176
     1
 40
40.0
176
     1
 90
        8
176
     1
 62
     7
176
     1
 40
1.0
176
     1
 90
        1
176
     1
 90
        6
176
     1
 90
        2
176
     1
 62
     7
176
     1
 90
        3
176
     1
 90
        0
176
     1
 90
        0
176
     1
290
     0
176
     1
 90
        1
176
     1
 40
0.0
176
     1
 90
        0
176
     1
290
     0
176
     1
290
     1
176
     1
290
     1
176
     1
290
     0
176
     1
290
     0
176
     1
290
     0
176
     1
290
     0
176
     1
290
     0
176
     1
290
     0
176
     1
 90
       50
176
     1
 40
0.0
176
     1
 40
1.0
176
     1
 90
        0
176
     1
 62
    18
420
        0
176
     1
 90
       50
176
     1
 90
        3
176
     1
 62
     5
420
      255
176
     1
290
     0
176
     1
 90
       50
176
     1
 90
       50
176
     1
 90
       50
176
     1
290
     0
176
     1
 90
       50
176
     1
 62
   256
176
     0
 40
1.0
176
     0
 90
        2
176
     1
  1
strokes_ogs.tif
176
     1
290
     0
176
     1
 40
1.0
176
     1
 40
1.0
176
     1
  0
VISUALSTYLE
  5
A4
102
{ACAD_REACTORS
330
99
102
}
330
99
100
AcDbVisualStyle
  2
Dim
 70
    11
177
     3
291
     1
 70
    58
 90
        2
176
     1
 90
        2
176
     1
 90
        1
176
     1
 90
        0
176
     1
 40
0.6
176
     1
 40
30.0
176
     1
 62
     7
420
 16777215
176
     1
 90
        1
176
     1
 90
        4
176
     1
 62
     7
176
     1
 62
   257
176
     1
 90
        1
176
     1
 90
        1
176
     1
 40
1.0
176
     1
 90
        8
176
     1
 62
     7
176
     1
 40
1.0
176
     1
 90
        1
176
     1
 90
        6
176
     1
 90
        2
176
     1
 62
     7
176
     1
 90
        5
176
     1
 90
        0
176
     1
 90
        0
176
     1
290
     0
176
     1
 90
        1
176
     1
 40
-50.0
176
     1
 90
        0
176
     1
290
     0
176
     1
290
     1
176
     1
290
     1
176
     1
290
     0
176
     1
290
     0
176
     1
290
     0
176
     1
290
     0
176
     1
290
     0
176
     1
290
     0
176
     1
 90
       50
176
     1
 40
0.0
176
     1
 40
1.0
176
     1
 90
        0
176
     1
 62
    18
420
        0
176
     1
 90
       50
176
     1
 90
        3
176
     1
 62
     5
420
      255
176
     1
290
     0
176
     1
 90
       50
176
     1
 90
       50
176
     1
 90
       50
176
     1
290
     0
176
     1
 90
       50
176
     1
 62
   256
176
     0
 40
1.0
176
     0
 90
        2
176
     1
  1
strokes_ogs.tif
176
     1
290
     0
176
     1
 40
1.0
176
     1
 40
1.0
176
     1
  0
VISUALSTYLE
  5
5C43C
102
{ACAD_REACTORS
330
99
102
}
330
99
100
AcDbVisualStyle
  2
EdgeColorOff
 70
    22
177
     3
291
     1
 70
    58
 90
        2
176
     0
 90
        2
176
     0
 90
        0
176
     0
 90
        0
176
     0
 40
0.6
176
     0
 40
30.0
176
     0
 62
     7
420
 16777215
176
     0
 90
        1
176
     0
 90
        4
176
     0
 62
     7
176
     0
 62
   257
176
     0
 90
        1
176
     0
 90
        1
176
     0
 40
1.0
176
     0
 90
        8
176
     2
 62
     7
176
     0
 40
1.0
176
     0
 90
        1
176
     0
 90
        6
176
     0
 90
        2
176
     0
 62
     7
176
     0
 90
        5
176
     0
 90
        0
176
     0
 90
        0
176
     0
290
     0
176
     0
 90
        1
176
     0
 40
0.0
176
     0
 90
        0
176
     0
290
     0
176
     0
290
     1
176
     0
290
     1
176
     0
290
     0
176
     0
290
     0
176
     0
290
     0
176
     0
290
     0
176
     0
290
     0
176
     0
290
     0
176
     0
 90
       50
176
     0
 40
0.0
176
     0
 40
1.0
176
     0
 90
        0
176
     0
 62
    18
420
        0
176
     0
 90
       50
176
     0
 90
        3
176
     0
 62
     5
420
      255
176
     0
290
     0
176
     0
 90
       50
176
     0
 90
       50
176
     0
 90
       50
176
     0
290
     0
176
     0
 90
       50
176
     0
 62
   256
176
     0
 40
1.0
176
     0
 90
        2
176
     0
  1
strokes_ogs.tif
176
     0
290
     0
176
     0
 40
1.0
176
     0
 40
1.0
176
     0
  0
VISUALSTYLE
  5
A8
102
{ACAD_REACTORS
330
99
102
}
330
99
100
AcDbVisualStyle
  2
Facepattern
 70
    15
177
     3
291
     1
 70
    58
 90
        2
176
     1
 90
        2
176
     1
 90
        1
176
     1
 90
        0
176
     1
 40
0.6
176
     1
 40
30.0
176
     1
 62
     7
420
 16777215
176
     1
 90
        1
176
     1
 90
        4
176
     1
 62
     7
176
     1
 62
   257
176
     1
 90
        1
176
     1
 90
        1
176
     1
 40
1.0
176
     1
 90
        8
176
     1
 62
     7
176
     1
 40
1.0
176
     1
 90
        1
176
     1
 90
        6
176
     1
 90
        2
176
     1
 62
     7
176
     1
 90
        5
176
     1
 90
        0
176
     1
 90
        0
176
     1
290
     0
176
     1
 90
        1
176
     1
 40
0.0
176
     1
 90
        0
176
     1
290
     0
176
     1
290
     1
176
     1
290
     1
176
     1
290
     0
176
     1
290
     0
176
     1
290
     0
176
     1
290
     0
176
     1
290
     0
176
     1
290
     0
176
     1
 90
       50
176
     1
 40
0.0
176
     1
 40
1.0
176
     1
 90
        0
176
     1
 62
    18
420
        0
176
     1
 90
       50
176
     1
 90
        3
176
     1
 62
     5
420
      255
176
     1
290
     0
176
     1
 90
       50
176
     1
 90
       50
176
     1
 90
       50
176
     1
290
     0
176
     1
 90
       50
176
     1
 62
   256
176
     0
 40
1.0
176
     0
 90
        2
176
     1
  1
strokes_ogs.tif
176
     1
290
     0
176
     1
 40
1.0
176
     1
 40
1.0
176
     1
  0
VISUALSTYLE
  5
9A
102
{ACAD_REACTORS
330
99
102
}
330
99
100
AcDbVisualStyle
  2
Flat
 70
     0
177
     3
291
     1
 70
    58
 90
        2
176
     1
 90
        1
176
     1
 90
        1
176
     1
 90
        2
176
     1
 40
0.6
176
     1
 40
30.0
176
     1
 62
     7
420
 16777215
176
     1
 90
        0
176
     1
 90
        4
176
     1
 62
     7
176
     1
 62
   257
176
     1
 90
        1
176
     1
 90
        1
176
     1
 40
1.0
176
     1
 90
        8
176
     1
 62
     7
176
     1
 40
1.0
176
     1
 90
        1
176
     1
 90
        6
176
     1
 90
        2
176
     1
 62
     7
176
     1
 90
        5
176
     1
 90
        0
176
     1
 90
        0
176
     1
290
     0
176
     1
 90
        1
176
     1
 40
0.0
176
     1
 90
        0
176
     1
290
     0
176
     1
290
     1
176
     1
290
     1
176
     1
290
     0
176
     1
290
     0
176
     1
290
     0
176
     1
290
     0
176
     1
290
     0
176
     1
290
     0
176
     1
 90
       50
176
     1
 40
0.0
176
     1
 40
1.0
176
     1
 90
        0
176
     1
 62
    18
420
        0
176
     1
 90
       50
176
     1
 90
        3
176
     1
 62
     5
420
      255
176
     1
290
     0
176
     1
 90
       50
176
     1
 90
       50
176
     1
 90
       50
176
     1
290
     0
176
     1
 90
       50
176
     1
 62
   256
176
     0
 40
1.0
176
     0
 90
        2
176
     1
  1
strokes_ogs.tif
176
     1
290
     0
176
     1
 40
1.0
176
     1
 40
1.0
176
     1
  0
VISUALSTYLE
  5
9B
102
{ACAD_REACTORS
330
99
102
}
330
99
100
AcDbVisualStyle
  2
FlatWithEdges
 70
     1
177
     3
291
     1
 70
    58
 90
        2
176
     1
 90
        1
176
     1
 90
        1
176
     1
 90
        2
176
     1
 40
0.6
176
     1
 40
30.0
176
     1
 62
     7
420
 16777215
176
     1
 90
        1
176
     1
 90
        4
176
     1
 62
     7
176
     1
 62
   257
176
     1
 90
        1
176
     1
 90
        1
176
     1
 40
1.0
176
     1
 90
        0
176
     1
 62
   257
176
     1
 40
1.0
176
     1
 90
        1
176
     1
 90
        6
176
     1
 90
        2
176
     1
 62
     7
176
     1
 90
        5
176
     1
 90
        0
176
     1
 90
        0
176
     1
290
     0
176
     1
 90
        1
176
     1
 40
0.0
176
     1
 90
        0
176
     1
290
     0
176
     1
290
     1
176
     1
290
     1
176
     1
290
     0
176
     1
290
     0
176
     1
290
     0
176
     1
290
     0
176
     1
290
     0
176
     1
290
     0
176
     1
 90
       50
176
     1
 40
0.0
176
     1
 40
1.0
176
     1
 90
        0
176
     1
 62
    18
420
        0
176
     1
 90
       50
176
     1
 90
        3
176
     1
 62
     5
420
      255
176
     1
290
     0
176
     1
 90
       50
176
     1
 90
       50
176
     1
 90
       50
176
     1
290
     0
176
     1
 90
       50
176
     1
 62
   256
176
     0
 40
1.0
176
     0
 90
        2
176
     1
  1
strokes_ogs.tif
176
     1
290
     0
176
     1
 40
1.0
176
     1
 40
1.0
176
     1
  0
VISUALSTYLE
  5
9C
102
{ACAD_REACTORS
330
99
102
}
330
99
100
AcDbVisualStyle
  2
Gouraud
 70
     2
177
     3
291
     1
 70
    58
 90
        2
176
     1
 90
        2
176
     1
 90
        1
176
     1
 90
        2
176
     1
 40
0.6
176
     1
 40
30.0
176
     1
 62
     7
420
 16777215
176
     1
 90
        0
176
     1
 90
        4
176
     1
 62
     7
176
     1
 62
   257
176
     1
 90
        1
176
     1
 90
        1
176
     1
 40
1.0
176
     1
 90
        0
176
     1
 62
     7
176
     1
 40
1.0
176
     1
 90
        1
176
     1
 90
        6
176
     1
 90
        2
176
     1
 62
     7
176
     1
 90
        5
176
     1
 90
        0
176
     1
 90
        0
176
     1
290
     0
176
     1
 90
        1
176
     1
 40
0.0
176
     1
 90
        0
176
     1
290
     0
176
     1
290
     1
176
     1
290
     1
176
     1
290
     0
176
     1
290
     0
176
     1
290
     0
176
     1
290
     0
176
     1
290
     0
176
     1
290
     0
176
     1
 90
       50
176
     1
 40
0.0
176
     1
 40
1.0
176
     1
 90
        0
176
     1
 62
    18
420
        0
176
     1
 90
       50
176
     1
 90
        3
176
     1
 62
     5
420
      255
176
     1
290
     0
176
     1
 90
       50
176
     1
 90
       50
176
     1
 90
       50
176
     1
290
     0
176
     1
 90
       50
176
     1
 62
   256
176
     0
 40
1.0
176
     0
 90
        2
176
     1
  1
strokes_ogs.tif
176
     1
290
     0
176
     1
 40
1.0
176
     1
 40
1.0
176
     1
  0
VISUALSTYLE
  5
9D
102
{ACAD_REACTORS
330
99
102
}
330
99
100
AcDbVisualStyle
  2
GouraudWithEdges
 70
     3
177
     3
291
     1
 70
    58
 90
        2
176
     1
 90
        2
176
     1
 90
        1
176
     1
 90
        2
176
     1
 40
0.6
176
     1
 40
30.0
176
     1
 62
     7
420
 16777215
176
     1
 90
        1
176
     1
 90
        4
176
     1
 62
     7
176
     1
 62
   257
176
     1
 90
        1
176
     1
 90
        1
176
     1
 40
1.0
176
     1
 90
        0
176
     1
 62
   257
176
     1
 40
1.0
176
     1
 90
        1
176
     1
 90
        6
176
     1
 90
        2
176
     1
 62
     7
176
     1
 90
        5
176
     1
 90
        0
176
     1
 90
        0
176
     1
290
     0
176
     1
 90
        1
176
     1
 40
0.0
176
     1
 90
        0
176
     1
290
     0
176
     1
290
     1
176
     1
290
     1
176
     1
290
     0
176
     1
290
     0
176
     1
290
     0
176
     1
290
     0
176
     1
290
     0
176
     1
290
     0
176
     1
 90
       50
176
     1
 40
0.0
176
     1
 40
1.0
176
     1
 90
        0
176
     1
 62
    18
420
        0
176
     1
 90
       50
176
     1
 90
        3
176
     1
 62
     5
420
      255
176
     1
290
     0
176
     1
 90
       50
176
     1
 90
       50
176
     1
 90
       50
176
     1
290
     0
176
     1
 90
       50
176
     1
 62
   256
176
     0
 40
1.0
176
     0
 90
        2
176
     1
  1
strokes_ogs.tif
176
     1
290
     0
176
     1
 40
1.0
176
     1
 40
1.0
176
     1
  0
VISUALSTYLE
  5
5C434
102
{ACAD_REACTORS
330
99
102
}
330
99
100
AcDbVisualStyle
  2
Hidden
 70
     6
177
     3
291
     0
 70
    58
 90
        1
176
     1
 90
        2
176
     1
 90
        2
176
     1
 90
        0
176
     1
 40
0.6
176
     1
 40
30.0
176
     1
 62
     7
420
 16777215
176
     1
 90
        2
176
     1
 90
        2
176
     1
 62
     7
176
     1
 62
   257
176
     1
 90
        2
176
     1
 90
        1
176
     1
 40
40.0
176
     1
 90
        0
176
     1
 62
   257
176
     1
 40
1.0
176
     1
 90
        1
176
     1
 90
        6
176
     1
 90
        2
176
     1
 62
     7
176
     1
 90
        3
176
     1
 90
        0
176
     1
 90
        0
176
     1
290
     0
176
     1
 90
        1
176
     1
 40
0.0
176
     1
 90
        0
176
     1
290
     0
176
     1
290
     1
176
     1
290
     1
176
     1
290
     0
176
     1
290
     0
176
     1
290
     0
176
     1
290
     0
176
     1
290
     0
176
     1
290
     0
176
     1
 90
       50
176
     1
 40
0.0
176
     1
 40
1.0
176
     1
 90
        0
176
     1
 62
    18
420
        0
176
     1
 90
       50
176
     1
 90
        3
176
     1
 62
     5
420
      255
176
     1
290
     0
176
     1
 90
       50
176
     1
 90
       50
176
     1
 90
       50
176
     1
290
     0
176
     1
 90
       50
176
     1
 62
   256
176
     0
 40
1.0
176
     0
 90
        2
176
     1
  1
strokes_ogs.tif
176
     1
290
     0
176
     1
 40
1.0
176
     1
 40
1.0
176
     1
  0
VISUALSTYLE
  5
5C43A
102
{ACAD_REACTORS
330
99
102
}
330
99
100
AcDbVisualStyle
  2
JitterOff
 70
    20
177
     3
291
     1
 70
    58
 90
        2
176
     0
 90
        2
176
     0
 90
        0
176
     0
 90
        0
176
     0
 40
0.6
176
     0
 40
30.0
176
     0
 62
     7
420
 16777215
176
     0
 90
        1
176
     0
 90
        4
176
     0
 62
     7
176
     0
 62
   257
176
     0
 90
        1
176
     0
 90
        1
176
     0
 40
1.0
176
     0
 90
       10
176
     2
 62
     7
176
     0
 40
1.0
176
     0
 90
        1
176
     0
 90
        6
176
     0
 90
        2
176
     0
 62
     7
176
     0
 90
        5
176
     0
 90
        0
176
     0
 90
        0
176
     0
290
     0
176
     0
 90
        1
176
     0
 40
0.0
176
     0
 90
        0
176
     0
290
     0
176
     0
290
     1
176
     0
290
     1
176
     0
290
     0
176
     0
290
     0
176
     0
290
     0
176
     0
290
     0
176
     0
290
     0
176
     0
290
     0
176
     0
 90
       50
176
     0
 40
0.0
176
     0
 40
1.0
176
     0
 90
        0
176
     0
 62
    18
420
        0
176
     0
 90
       50
176
     0
 90
        3
176
     0
 62
     5
420
      255
176
     0
290
     0
176
     0
 90
       50
176
     0
 90
       50
176
     0
 90
       50
176
     0
290
     0
176
     0
 90
       50
176
     0
 62
   256
176
     0
 40
1.0
176
     0
 90
        2
176
     0
  1
strokes_ogs.tif
176
     0
290
     0
176
     0
 40
1.0
176
     0
 40
1.0
176
     0
  0
VISUALSTYLE
  5
A7
102
{ACAD_REACTORS
330
99
102
}
330
99
100
AcDbVisualStyle
  2
Linepattern
 70
    14
177
     3
291
     1
 70
    58
 90
        2
176
     1
 90
        2
176
     1
 90
        1
176
     1
 90
        0
176
     1
 40
0.6
176
     1
 40
30.0
176
     1
 62
     7
420
 16777215
176
     1
 90
        1
176
     1
 90
        4
176
     1
 62
     7
176
     1
 62
   257
176
     1
 90
        7
176
     1
 90
        7
176
     1
 40
1.0
176
     1
 90
        8
176
     1
 62
     7
176
     1
 40
1.0
176
     1
 90
        1
176
     1
 90
        6
176
     1
 90
        2
176
     1
 62
     7
176
     1
 90
        5
176
     1
 90
        0
176
     1
 90
        0
176
     1
290
     0
176
     1
 90
        1
176
     1
 40
0.0
176
     1
 90
        0
176
     1
290
     0
176
     1
290
     1
176
     1
290
     1
176
     1
290
     0
176
     1
290
     0
176
     1
290
     0
176
     1
290
     0
176
     1
290
     0
176
     1
290
     0
176
     1
 90
       50
176
     1
 40
0.0
176
     1
 40
1.0
176
     1
 90
        0
176
     1
 62
    18
420
        0
176
     1
 90
       50
176
     1
 90
        3
176
     1
 62
     5
420
      255
176
     1
290
     0
176
     1
 90
       50
176
     1
 90
       50
176
     1
 90
       50
176
     1
290
     0
176
     1
 90
       50
176
     1
 62
   256
176
     0
 40
1.0
176
     0
 90
        2
176
     1
  1
strokes_ogs.tif
176
     1
290
     0
176
     1
 40
1.0
176
     1
 40
1.0
176
     1
  0
VISUALSTYLE
  5
5C43B
102
{ACAD_REACTORS
330
99
102
}
330
99
100
AcDbVisualStyle
  2
OverhangOff
 70
    21
177
     3
291
     1
 70
    58
 90
        2
176
     0
 90
        2
176
     0
 90
        0
176
     0
 90
        0
176
     0
 40
0.6
176
     0
 40
30.0
176
     0
 62
     7
420
 16777215
176
     0
 90
        1
176
     0
 90
        4
176
     0
 62
     7
176
     0
 62
   257
176
     0
 90
        1
176
     0
 90
        1
176
     0
 40
1.0
176
     0
 90
        9
176
     2
 62
     7
176
     0
 40
1.0
176
     0
 90
        1
176
     0
 90
        6
176
     0
 90
        2
176
     0
 62
     7
176
     0
 90
        5
176
     0
 90
        0
176
     0
 90
        0
176
     0
290
     0
176
     0
 90
        1
176
     0
 40
0.0
176
     0
 90
        0
176
     0
290
     0
176
     0
290
     1
176
     0
290
     1
176
     0
290
     0
176
     0
290
     0
176
     0
290
     0
176
     0
290
     0
176
     0
290
     0
176
     0
290
     0
176
     0
 90
       50
176
     0
 40
0.0
176
     0
 40
1.0
176
     0
 90
        0
176
     0
 62
    18
420
        0
176
     0
 90
       50
176
     0
 90
        3
176
     0
 62
     5
420
      255
176
     0
290
     0
176
     0
 90
       50
176
     0
 90
       50
176
     0
 90
       50
176
     0
290
     0
176
     0
 90
       50
176
     0
 62
   256
176
     0
 40
1.0
176
     0
 90
        2
176
     0
  1
strokes_ogs.tif
176
     0
290
     0
176
     0
 40
1.0
176
     0
 40
1.0
176
     0
  0
VISUALSTYLE
  5
A3
102
{ACAD_REACTORS
330
99
102
}
330
99
100
AcDbVisualStyle
  2
Realistic
 70
     8
177
     3
291
     0
 70
    58
 90
        2
176
     1
 90
        2
176
     1
 90
        1
176
     1
 90
        0
176
     1
 40
0.6
176
     1
 40
30.0
176
     1
 62
     7
420
 16777215
176
     1
 90
        1
176
     1
 90
        0
176
     1
 62
     7
176
     1
 62
   257
176
     1
 90
        1
176
     1
 90
        1
176
     1
 40
1.0
176
     1
 90
        8
176
     1
 62
     8
420
  7895160
176
     1
 40
1.0
176
     1
 90
        1
176
     1
 90
        6
176
     1
 90
        2
176
     1
 62
     7
176
     1
 90
        5
176
     1
 90
        0
176
     1
 90
        0
176
     1
290
     0
176
     1
 90
       13
176
     1
 40
0.0
176
     1
 90
        0
176
     1
290
     0
176
     1
290
     1
176
     1
290
     1
176
     1
290
     0
176
     1
290
     0
176
     1
290
     0
176
     1
290
     0
176
     1
290
     0
176
     1
290
     0
176
     1
 90
       50
176
     1
 40
0.0
176
     1
 40
1.0
176
     1
 90
        0
176
     1
 62
    18
420
        0
176
     1
 90
       50
176
     1
 90
        3
176
     1
 62
     5
420
      255
176
     1
290
     0
176
     1
 90
       50
176
     1
 90
       50
176
     1
 90
       50
176
     1
290
     0
176
     1
 90
       50
176
     1
 62
   256
176
     0
 40
1.0
176
     0
 90
        2
176
     1
  1
strokes_ogs.tif
176
     1
290
     0
176
     1
 40
1.0
176
     1
 40
1.0
176
     1
  0
VISUALSTYLE
  5
5C439
102
{ACAD_REACTORS
330
99
102
}
330
99
100
AcDbVisualStyle
  2
Shaded
 70
    27
177
     3
291
     0
 70
    58
 90
        2
176
     1
 90
        2
176
     1
 90
        1
176
     1
 90
        2
176
     1
 40
0.6
176
     1
 40
30.0
176
     1
 62
     7
420
 16777215
176
     1
 90
        0
176
     1
 90
        4
176
     1
 62
     7
176
     1
 62
   257
176
     1
 90
        1
176
     1
 90
        1
176
     1
 40
1.0
176
     1
 90
        8
176
     1
 62
   257
176
     1
 40
1.0
176
     1
 90
        1
176
     1
 90
        6
176
     1
 90
        2
176
     1
 62
     8
420
  7895160
176
     1
 90
        3
176
     1
 90
        0
176
     1
 90
        0
176
     1
290
     0
176
     1
 90
        5
176
     1
 40
0.0
176
     1
 90
        0
176
     1
290
     0
176
     1
290
     1
176
     1
290
     1
176
     1
290
     0
176
     1
290
     0
176
     1
290
     0
176
     1
290
     0
176
     1
290
     0
176
     1
290
     0
176
     1
 90
       50
176
     1
 40
0.0
176
     1
 40
1.0
176
     1
 90
        0
176
     1
 62
    18
420
        0
176
     1
 90
       50
176
     1
 90
        3
176
     1
 62
     5
420
      255
176
     1
290
     0
176
     1
 90
       50
176
     1
 90
       50
176
     1
 90
       50
176
     1
290
     0
176
     1
 90
       50
176
     1
 62
   256
176
     0
 40
1.0
176
     0
 90
        2
176
     1
  1
strokes_ogs.tif
176
     1
290
     0
176
     1
 40
1.0
176
     1
 40
1.0
176
     1
  0
VISUALSTYLE
  5
5C438
102
{ACAD_REACTORS
330
99
102
}
330
99
100
AcDbVisualStyle
  2
Shaded with edges
 70
    26
177
     3
291
     0
 70
    58
 90
        2
176
     1
 90
        2
176
     1
 90
        1
176
     1
 90
        2
176
     1
 40
0.6
176
     1
 40
30.0
176
     1
 62
     7
420
 16777215
176
     1
 90
        1
176
     1
 90
       10
176
     1
 62
     7
176
     1
 62
   257
176
     1
 90
        2
176
     1
 90
        1
176
     1
 40
1.0
176
     1
 90
        8
176
     1
 62
   257
176
     1
 40
1.0
176
     1
 90
        1
176
     1
 90
        6
176
     1
 90
        2
176
     1
 62
     7
176
     1
 90
        3
176
     1
 90
        0
176
     1
 90
        0
176
     1
290
     0
176
     1
 90
        5
176
     1
 40
0.0
176
     1
 90
        0
176
     1
290
     0
176
     1
290
     1
176
     1
290
     1
176
     1
290
     0
176
     1
290
     0
176
     1
290
     0
176
     1
290
     0
176
     1
290
     0
176
     1
290
     0
176
     1
 90
       50
176
     1
 40
0.0
176
     1
 40
1.0
176
     1
 90
        0
176
     1
 62
    18
420
        0
176
     1
 90
       50
176
     1
 90
        3
176
     1
 62
     5
420
      255
176
     1
290
     0
176
     1
 90
       50
176
     1
 90
       50
176
     1
 90
       50
176
     1
290
     0
176
     1
 90
       50
176
     1
 62
   256
176
     0
 40
1.0
176
     0
 90
        2
176
     1
  1
strokes_ogs.tif
176
     1
290
     0
176
     1
 40
1.0
176
     1
 40
1.0
176
     1
  0
VISUALSTYLE
  5
5C435
102
{ACAD_REACTORS
330
99
102
}
330
99
100
AcDbVisualStyle
  2
Shades of Gray
 70
    23
177
     3
291
     0
 70
    58
 90
        2
176
     1
 90
        2
176
     1
 90
        3
176
     1
 90
        0
176
     1
 40
0.6
176
     1
 40
30.0
176
     1
 62
     7
420
 16777215
176
     1
 90
        2
176
     1
 90
        2
176
     1
 62
     7
176
     1
 62
     7
176
     1
 90
        1
176
     1
 90
        1
176
     1
 40
40.0
176
     1
 90
        8
176
     1
 62
     7
176
     1
 40
1.0
176
     1
 90
        1
176
     1
 90
        6
176
     1
 90
        2
176
     1
 62
     7
176
     1
 90
        3
176
     1
 90
        0
176
     1
 90
        0
176
     1
290
     0
176
     1
 90
        1
176
     1
 40
0.0
176
     1
 90
        0
176
     1
290
     0
176
     1
290
     1
176
     1
290
     1
176
     1
290
     0
176
     1
290
     0
176
     1
290
     0
176
     1
290
     0
176
     1
290
     0
176
     1
290
     0
176
     1
 90
       50
176
     1
 40
0.0
176
     1
 40
1.0
176
     1
 90
        0
176
     1
 62
    18
420
        0
176
     1
 90
       50
176
     1
 90
        3
176
     1
 62
     5
420
      255
176
     1
290
     0
176
     1
 90
       50
176
     1
 90
       50
176
     1
 90
       50
176
     1
290
     0
176
     1
 90
       50
176
     1
 62
   256
176
     0
 40
1.0
176
     0
 90
        2
176
     1
  1
strokes_ogs.tif
176
     1
290
     0
176
     1
 40
1.0
176
     1
 40
1.0
176
     1
  0
VISUALSTYLE
  5
5C436
102
{ACAD_REACTORS
330
99
102
}
330
99
100
AcDbVisualStyle
  2
Sketchy
 70
    24
177
     3
291
     0
 70
    58
 90
        1
176
     1
 90
        2
176
     1
 90
        2
176
     1
 90
        0
176
     1
 40
0.6
176
     1
 40
30.0
176
     1
 62
     7
420
 16777215
176
     1
 90
        2
176
     1
 90
        2
176
     1
 62
     7
176
     1
 62
     7
176
     1
 90
        1
176
     1
 90
        1
176
     1
 40
40.0
176
     1
 90
       11
176
     1
 62
     7
176
     1
 40
1.0
176
     1
 90
        1
176
     1
 90
        6
176
     1
 90
        2
176
     1
 62
     7
176
     1
 90
        6
176
     1
 90
        0
176
     1
 90
        0
176
     1
290
     0
176
     1
 90
        1
176
     1
 40
0.0
176
     1
 90
        0
176
     1
290
     0
176
     1
290
     1
176
     1
290
     1
176
     1
290
     0
176
     1
290
     0
176
     1
290
     0
176
     1
290
     0
176
     1
290
     0
176
     1
290
     0
176
     1
 90
       50
176
     1
 40
0.0
176
     1
 40
1.0
176
     1
 90
        0
176
     1
 62
    18
420
        0
176
     1
 90
       50
176
     1
 90
        3
176
     1
 62
     5
420
      255
176
     1
290
     0
176
     1
 90
       50
176
     1
 90
       50
176
     1
 90
       50
176
     1
290
     0
176
     1
 90
       50
176
     1
 62
   256
176
     0
 40
1.0
176
     0
 90
        2
176
     1
  1
strokes_ogs.tif
176
     1
290
     0
176
     1
 40
1.0
176
     1
 40
1.0
176
     1
  0
VISUALSTYLE
  5
A6
102
{ACAD_REACTORS
330
99
102
}
330
99
100
AcDbVisualStyle
  2
Thicken
 70
    13
177
     3
291
     1
 70
    58
 90
        2
176
     1
 90
        2
176
     1
 90
        1
176
     1
 90
        0
176
     1
 40
0.6
176
     1
 40
30.0
176
     1
 62
     7
420
 16777215
176
     1
 90
        1
176
     1
 90
        4
176
     1
 62
     7
176
     1
 62
   257
176
     1
 90
        1
176
     1
 90
        1
176
     1
 40
1.0
176
     1
 90
       12
176
     1
 62
     7
176
     1
 40
1.0
176
     1
 90
        1
176
     1
 90
        6
176
     1
 90
        2
176
     1
 62
     7
176
     1
 90
        5
176
     1
 90
        0
176
     1
 90
        0
176
     1
290
     0
176
     1
 90
        1
176
     1
 40
0.0
176
     1
 90
        0
176
     1
290
     0
176
     1
290
     1
176
     1
290
     1
176
     1
290
     0
176
     1
290
     0
176
     1
290
     0
176
     1
290
     0
176
     1
290
     0
176
     1
290
     0
176
     1
 90
       50
176
     1
 40
0.0
176
     1
 40
1.0
176
     1
 90
        0
176
     1
 62
    18
420
        0
176
     1
 90
       50
176
     1
 90
        3
176
     1
 62
     5
420
      255
176
     1
290
     0
176
     1
 90
       50
176
     1
 90
       50
176
     1
 90
       50
176
     1
290
     0
176
     1
 90
       50
176
     1
 62
   256
176
     0
 40
1.0
176
     0
 90
        2
176
     1
  1
strokes_ogs.tif
176
     1
290
     0
176
     1
 40
1.0
176
     1
 40
1.0
176
     1
  0
VISUALSTYLE
  5
5C433
102
{ACAD_REACTORS
330
99
102
}
330
99
100
AcDbVisualStyle
  2
Wireframe
 70
     5
177
     3
291
     0
 70
    58
 90
        0
176
     1
 90
        2
176
     1
 90
        0
176
     1
 90
        0
176
     1
 40
0.6
176
     1
 40
30.0
176
     1
 62
     7
420
 16777215
176
     1
 90
        1
176
     1
 90
        4
176
     1
 62
     7
176
     1
 62
   257
176
     1
 90
        1
176
     1
 90
        1
176
     1
 40
1.0
176
     1
 90
        0
176
     1
 62
   257
176
     1
 40
1.0
176
     1
 90
        1
176
     1
 90
        6
176
     1
 90
        2
176
     1
 62
     7
176
     1
 90
        3
176
     1
 90
        0
176
     1
 90
        0
176
     1
290
     0
176
     1
 90
        1
176
     1
 40
0.0
176
     1
 90
        0
176
     1
290
     0
176
     1
290
     1
176
     1
290
     1
176
     1
290
     0
176
     1
290
     0
176
     1
290
     0
176
     1
290
     0
176
     1
290
     0
176
     1
290
     0
176
     1
 90
       50
176
     1
 40
0.0
176
     1
 40
1.0
176
     1
 90
        0
176
     1
 62
    18
420
        0
176
     1
 90
       50
176
     1
 90
        3
176
     1
 62
     5
420
      255
176
     1
290
     0
176
     1
 90
       50
176
     1
 90
       50
176
     1
 90
       50
176
     1
290
     0
176
     1
 90
       50
176
     1
 62
   256
176
     0
 40
1.0
176
     0
 90
        2
176
     1
  1
strokes_ogs.tif
176
     1
290
     0
176
     1
 40
1.0
176
     1
 40
1.0
176
     1
  0
VISUALSTYLE
  5
5C437
102
{ACAD_REACTORS
330
99
102
}
330
99
100
AcDbVisualStyle
  2
X-Ray
 70
    25
177
     3
291
     0
 70
    58
 90
        2
176
     1
 90
        2
176
     1
 90
        1
176
     1
 90
        1
176
     1
 40
0.5
176
     1
 40
30.0
176
     1
 62
     7
420
 16777215
176
     1
 90
        1
176
     1
 90
        0
176
     1
 62
     7
176
     1
 62
   257
176
     1
 90
        1
176
     1
 90
        1
176
     1
 40
1.0
176
     1
 90
        8
176
     1
 62
     7
176
     1
 40
1.0
176
     1
 90
        1
176
     1
 90
        6
176
     1
 90
        2
176
     1
 62
     7
176
     1
 90
        3
176
     1
 90
        0
176
     1
 90
        0
176
     1
290
     0
176
     1
 90
       13
176
     1
 40
0.0
176
     1
 90
        0
176
     1
290
     0
176
     1
290
     1
176
     1
290
     1
176
     1
290
     0
176
     1
290
     0
176
     1
290
     0
176
     1
290
     0
176
     1
290
     0
176
     1
290
     0
176
     1
 90
       50
176
     1
 40
0.0
176
     1
 40
1.0
176
     1
 90
        0
176
     1
 62
    18
420
        0
176
     1
 90
       50
176
     1
 90
        3
176
     1
 62
     5
420
      255
176
     1
290
     0
176
     1
 90
       50
176
     1
 90
       50
176
     1
 90
       50
176
     1
290
     0
176
     1
 90
       50
176
     1
 62
   256
176
     0
 40
1.0
176
     0
 90
        2
176
     1
  1
strokes_ogs.tif
176
     1
290
     0
176
     1
 40
1.0
176
     1
 40
1.0
176
     1
  0
DICTIONARY
  5
5C6BF
102
{ACAD_REACTORS
330
5C6BE
102
}
330
5C6BE
100
AcDbDictionary
280
     1
281
     1
  3
DefaultStandard
360
9C879
  3
Standards
360
5C6C0
  0
DICTIONARYVAR
  5
B5D
102
{ACAD_REACTORS
330
66
102
}
330
66
100
DictionaryVariables
280
     0
  1
1:1
  0
DICTIONARYVAR
  5
B5C
102
{ACAD_REACTORS
330
66
102
}
330
66
100
DictionaryVariables
280
     0
  1
STANDARD
  0
DICTIONARYVAR
  5
89
102
{ACAD_REACTORS
330
66
102
}
330
66
100
DictionaryVariables
280
     0
  1
STANDARD
  0
DICTIONARYVAR
  5
66F55
102
{ACAD_REACTORS
330
66
102
}
330
66
100
DictionaryVariables
280
     0
  1
Imperial24
  0
DICTIONARYVAR
  5
66F56
102
{ACAD_REACTORS
330
66
102
}
330
66
100
DictionaryVariables
280
     0
  1
Imperial24
  0
DICTIONARYVAR
  5
67
102
{ACAD_REACTORS
330
66
102
}
330
66
100
DictionaryVariables
280
     0
  1
2
  0
DICTIONARYVAR
  5
6B
102
{ACAD_REACTORS
330
66
102
}
330
66
100
DictionaryVariables
280
     0
  1
1
  0
DICTIONARYVAR
  5
9D9A7
102
{ACAD_REACTORS
330
66
102
}
330
66
100
DictionaryVariables
280
     0
  1
BYLAYER
  0
DICTIONARYVAR
  5
9D9A6
102
{ACAD_REACTORS
330
66
102
}
330
66
100
DictionaryVariables
280
     0
  1
ByLayer
  0
DICTIONARYVAR
  5
25751
102
{ACAD_REACTORS
330
66
102
}
330
66
100
DictionaryVariables
280
     0
  1
1
  0
DICTIONARYVAR
  5
25752
102
{ACAD_REACTORS
330
66
102
}
330
66
100
DictionaryVariables
280
     0
  1
15
  0
DICTIONARYVAR
  5
F79
102
{ACAD_REACTORS
330
66
102
}
330
66
100
DictionaryVariables
280
     0
  1
0
  0
DICTIONARYVAR
  5
F78
102
{ACAD_REACTORS
330
66
102
}
330
66
100
DictionaryVariables
280
     0
  1
0
  0
DICTIONARY
  5
A21DF
330
5C440
100
AcDbDictionary
280
     1
281
     1
  3
ACAD_XREC_ROUNDTRIP
360
AD685
  0
DICTIONARY
  5
66EB6
330
22
100
AcDbDictionary
280
     1
281
     1
  0
XRECORD
  5
A15E7
102
{ACAD_REACTORS
330
A15E6
102
}
330
A15E6
100
AcDbXrecord
280
     1
 70
     2
 71
     3
 72
     0
  0
DICTIONARY
  5
A21DD
330
5C43E
100
AcDbDictionary
280
     1
281
     1
  3
ACAD_XREC_ROUNDTRIP
360
AD684
  0
DICTIONARY
  5
B4E
330
87
100
AcDbDictionary
280
     1
281
     1
  3
ACAD_ROUNDTRIP_2008_TABLESTYLE_CELLSTYLEMAP
360
AD683
  0
XRECORD
  5
9C879
102
{ACAD_REACTORS
330
5C6BF
102
}
330
5C6BF
100
AcDbXrecord
280
     1
1000
AIA Version 3
  0
BINRECORD
  5
5C6C0
102
{ACAD_REACTORS
330
5C6BF
102
}
330
5C6BF
100
AcAecBinRecord
 90
        0
 91
    19403
 70
     0
310
0100FFFEFF0D4100490041002000560065007200730069006F006E00200033000500FFFF01001C004163416563556B4C6179657244657363726970746976654669656C64FFFEFF154400690073006300690070006C0069006E0065002000440065007300690067006E00610074006F0072000102000000007B333637354541
310
46100100002100000070BA406CD0EA76040B00FFFEFF001500FFFEFF01520002000000FFFEFF085200650073006F0075007200630065000700FFFEFF01410002000000FFFEFF165200650073006F00750072006300650020004100720063006800690074006500630074007500720061006C00000000000000FFFEFF014D00
310
02000000FFFEFF135200650073006F00750072006300650020004D0065006300680061006E006900630061006C00000000000000FFFEFF014B0002000000FFFEFF175200650073006F007500720063006500200028005500730065007200200044006500660069006E00650064002900000000000000FFFEFF014A00020000
310
00FFFEFF175200650073006F007500720063006500200028005500730065007200200044006500660069006E00650064002900000000000000FFFEFF01450002000000FFFEFF135200650073006F007500720063006500200045006C0065006300740072006900630061006C00000000000000FFFEFF01430002000000FFFE
310
FF0E5200650073006F007500720063006500200043006900760069006C00000000000000FFFEFF01530002000000FFFEFF135200650073006F00750072006300650020005300740072007500630074007500720061006C0000000000000000000000FFFEFF01410002000000FFFEFF0D410072006300680069007400650063
310
0074007500720061006C000A00FFFEFF01500002000000FFFEFF144100720063006800690074006500630074007500720061006C00200050006100760069006E006700000000000000FFFEFF014B0002000000FFFEFF1C4100720063006800690074006500630074007500720061006C002000280055007300650072002000
310
44006500660069006E00650064002900000000000000FFFEFF014A0002000000FFFEFF1C4100720063006800690074006500630074007500720061006C00200028005500730065007200200044006500660069006E00650064002900000000000000FFFEFF01490002000000FFFEFF16410072006300680069007400650063
310
0074007500720061006C00200049006E0074006500720069006F007200000000000000FFFEFF01470002000000FFFEFF164100720063006800690074006500630074007500720061006C00200047007200610070006800690063007300000000000000FFFEFF01460002000000FFFEFF164100720063006800690074006500
310
630074007500720061006C002000460069006E0069007300680065007300000000000000FFFEFF01450002000000FFFEFF164100720063006800690074006500630074007500720061006C00200045006C0065006D0065006E0074007300000000000000FFFEFF01440002000000FFFEFF1841007200630068006900740065
310
00630074007500720061006C002000440065006D006F006C006900740069006F006E00000000000000FFFEFF01540002000000FFFEFF1C4100720063006800690074006500630074007500720061006C0020005400720061006E00730070006F00720074006100740069006F006E00000000000000FFFEFF01530002000000
310
FFFEFF124100720063006800690074006500630074007500720061006C002000530069007400650000000000000001000000FFFEFF01510002000000FFFEFF09450071007500690070006D0065006E0074001100FFFEFF01410002000000FFFEFF124100740068006C0065007400690063002000450071007500690070006D
310
0065006E007400000000000000FFFEFF01520002000000FFFEFF10520065007400610069006C002000450071007500690070006D0065006E007400000000000000FFFEFF01500002000000FFFEFF155000610072006B0069006E00670020004C006F0074002000450071007500690070006D0065006E007400000000000000
310
FFFEFF014D0002000000FFFEFF154D00610069006E00740065006E0061006E00630065002000450071007500690070006D0065006E007400000000000000FFFEFF014C0002000000FFFEFF144C00610062006F007200610074006F00720079002000450071007500690070006D0065006E007400000000000000FFFEFF014B
310
0002000000FFFEFF18450071007500690070006D0065006E007400200028005500730065007200200044006500660069006E00650064002900000000000000FFFEFF014A0002000000FFFEFF18450071007500690070006D0065006E007400200028005500730065007200200044006500660069006E006500640029000000
310
00000000FFFEFF01480002000000FFFEFF1248006F00730070006900740061006C002000450071007500690070006D0065006E007400000000000000FFFEFF01590002000000FFFEFF12530065006300750072006900740079002000450071007500690070006D0065006E007400000000000000FFFEFF01460002000000FF
310
FEFF1646006F006F006400200053006500720076006900630065002000450071007500690070006D0065006E007400000000000000FFFEFF01450002000000FFFEFF1545006400750063006100740069006F006E0061006C002000450071007500690070006D0065006E007400000000000000FFFEFF01560002000000FFFE
310
FF1C56006900640065006F002F00500068006F0074006F0067007200610070006800690063002000450071007500690070006D0065006E007400000000000000FFFEFF01440002000000FFFEFF1344006500740065006E00740069006F006E002000450071007500690070006D0065006E007400000000000000FFFEFF0143
310
0002000000FFFEFF16440072007900200043006C00650061006E0069006E0067002000450071007500690070006D0065006E007400000000000000FFFEFF01540002000000FFFEFF145400680065006100740072006900630061006C002000450071007500690070006D0065006E007400000000000000FFFEFF0142000200
310
0000FFFEFF0E420061006E006B002000450071007500690070006D0065006E007400000000000000FFFEFF01530002000000FFFEFF0E53006900740065002000450071007500690070006D0065006E00740000000000000000000000FFFEFF01500002000000FFFEFF0850006C0075006D00620069006E0067000600FFFEFF
310
01510002000000FFFEFF1250006C0075006D00620069006E0067002000450071007500690070006D0065006E007400000000000000FFFEFF01500002000000FFFEFF0F50006C0075006D00620069006E006700200050006900700069006E006700000000000000FFFEFF014B0002000000FFFEFF1750006C0075006D006200
310
69006E006700200028005500730065007200200044006500660069006E00650064002900000000000000FFFEFF014A0002000000FFFEFF1750006C0075006D00620069006E006700200028005500730065007200200044006500660069006E00650064002900000000000000FFFEFF01440002000000FFFEFF1350006C0075
310
006D00620069006E0067002000440065006D006F006C006900740069006F006E00000000000000FFFEFF01530002000000FFFEFF0D50006C0075006D00620069006E0067002000530069007400650000000000000000000000FFFEFF014F0002000000FFFEFF0A4F007000650072006100740069006F006E0073000200FFFE
310
FF014B0002000000FFFEFF194F007000650072006100740069006F006E007300200028005500730065007200200044006500660069006E00650064002900000000000000FFFEFF014A0002000000FFFEFF194F007000650072006100740069006F006E007300200028005500730065007200200044006500660069006E0065
310
006400290000000000000000000000FFFEFF014D0002000000FFFEFF0A4D0065006300680061006E006900630061006C000700FFFEFF01500002000000FFFEFF114D0065006300680061006E006900630061006C00200050006900700069006E006700000000000000FFFEFF014B0002000000FFFEFF194D00650063006800
310
61006E006900630061006C00200028005500730065007200200044006500660069006E00650064002900000000000000FFFEFF014A0002000000FFFEFF194D0065006300680061006E006900630061006C00200028005500730065007200200044006500660069006E00650064002900000000000000FFFEFF014900020000
310
00FFFEFF1A4D0065006300680061006E006900630061006C00200049006E0073007400720075006D0065006E0074006100740069006F006E00000000000000FFFEFF01480002000000FFFEFF0F4D0065006300680061006E006900630061006C0020004800560041004300000000000000FFFEFF01440002000000FFFEFF15
310
4D0065006300680061006E006900630061006C002000440065006D006F006C006900740069006F006E00000000000000FFFEFF01530002000000FFFEFF0F4D0065006300680061006E006900630061006C002000530069007400650000000000000000000000FFFEFF014C0002000000FFFEFF094C0061006E006400730063
310
006100700065000500FFFEFF01500002000000FFFEFF124C0061006E00640073006300610070006500200050006C0061006E00740069006E006700000000000000FFFEFF014B0002000000FFFEFF184C0061006E00640073006300610070006500200028005500730065007200200044006500660069006E00650064002900
310
000000000000FFFEFF014A0002000000FFFEFF184C0061006E00640073006300610070006500200028005500730065007200200044006500660069006E00650064002900000000000000FFFEFF01490002000000FFFEFF144C0061006E006400730063006100700065002000490072007200690067006100740069006F006E
310
00000000000000FFFEFF01440002000000FFFEFF144C0061006E006400730063006100700065002000440065006D006F006C006900740069006F006E0000000000000000000000FFFEFF015A0002000000FFFEFF1A43006F006E00740072006100630074006F00720020002F002000530068006F0070002000440072006100
310
770069006E00670073000200FFFEFF014B0002000000FFFEFF2943006F006E00740072006100630074006F00720020002F002000530068006F0070002000440072006100770069006E0067007300200028005500730065007200200044006500660069006E00650064002900000000000000FFFEFF014A0002000000FFFEFF
310
2943006F006E00740072006100630074006F00720020002F002000530068006F0070002000440072006100770069006E0067007300200028005500730065007200200044006500660069006E0065006400290000000000000000000000FFFEFF01490002000000FFFEFF0949006E0074006500720069006F00720073000600
310
FFFEFF014E0002000000FFFEFF0F49006E0074006500720069006F0072002000440065007300690067006E00000000000000FFFEFF014B0002000000FFFEFF1849006E0074006500720069006F0072007300200028005500730065007200200044006500660069006E00650064002900000000000000FFFEFF014A00020000
310
00FFFEFF1849006E0074006500720069006F0072007300200028005500730065007200200044006500660069006E00650064002900000000000000FFFEFF01470002000000FFFEFF1249006E0074006500720069006F0072007300200047007200610070006800690063007300000000000000FFFEFF01460002000000FFFE
310
FF1149006E0074006500720069006F0072002000460069006E0069007300680065007300000000000000FFFEFF01440002000000FFFEFF1349006E0074006500720069006F0072002000440065006D006F006C006900740069006F006E0000000000000000000000FFFEFF01480002000000FFFEFF13480061007A00610072
310
0064006F007500730020004D006100740065007200690061006C0073000700FFFEFF01410002000000FFFEFF084100730062006500730074006F007300000000000000FFFEFF01520002000000FFFEFF0C5200650066007200690067006500720061006E0074007300000000000000FFFEFF01500002000000FFFEFF035000
310
43004200000000000000FFFEFF014C0002000000FFFEFF044C00650061006400000000000000FFFEFF014B0002000000FFFEFF22480061007A006100720064006F007500730020004D006100740065007200690061006C007300200028005500730065007200200044006500660069006E00650064002900000000000000FF
310
FEFF014A0002000000FFFEFF22480061007A006100720064006F007500730020004D006100740065007200690061006C007300200028005500730065007200200044006500660069006E00650064002900000000000000FFFEFF01430002000000FFFEFF094300680065006D006900630061006C0073000000000000000000
310
0000FFFEFF01580002000000FFFEFF114F00740068006500720020004400690073006300690070006C0069006E00650073000200FFFEFF014B0002000000FFFEFF204F00740068006500720020004400690073006300690070006C0069006E0065007300200028005500730065007200200044006500660069006E00650064
310
002900000000000000FFFEFF014A0002000000FFFEFF204F00740068006500720020004400690073006300690070006C0069006E0065007300200028005500730065007200200044006500660069006E0065006400290000000000000000000000FFFEFF01470002000000FFFEFF07470065006E006500720061006C000500
310
FFFEFF01520002000000FFFEFF10470065006E006500720061006C0020005200650073006F007500720063006500000000000000FFFEFF014B0002000000FFFEFF16470065006E006500720061006C00200028005500730065007200200044006500660069006E00650064002900000000000000FFFEFF014A0002000000FF
310
FEFF16470065006E006500720061006C00200028005500730065007200200044006500660069006E00650064002900000000000000FFFEFF01490002000000FFFEFF13470065006E006500720061006C00200049006E0066006F0072006D006100740069006F006E00000000000000FFFEFF01430002000000FFFEFF134700
310
65006E006500720061006C00200043006F006E0074007200610063007400750061006C0000000000000000000000FFFEFF01460002000000FFFEFF0F46006900720065002000500072006F00740065006300740069006F006E000400FFFEFF01410002000000FFFEFF18460069007200650020004400650074006500630074
310
0069006F006E00200061006E006400200041006C00610072006D00000000000000FFFEFF014B0002000000FFFEFF134600690072006500200028005500730065007200200044006500660069006E00650064002900000000000000FFFEFF014A0002000000FFFEFF1346006900720065002000280055007300650072002000
310
44006500660069006E00650064002900000000000000FFFEFF01530002000000FFFEFF10460069007200650020005300750070007000720065007300730069006F006E0000000000000000000000FFFEFF01570002000000FFFEFF0B43006900760069006C00200057006F0072006B0073000200FFFEFF014B0002000000FF
310
FEFF1A43006900760069006C00200057006F0072006B007300200028005500730065007200200044006500660069006E00650064002900000000000000FFFEFF014A0002000000FFFEFF1A43006900760069006C00200057006F0072006B007300200028005500730065007200200044006500660069006E00650064002900
310
00000000000000000000FFFEFF01450002000000FFFEFF0A45006C0065006300740072006900630061006C000900FFFEFF01500002000000FFFEFF1045006C0065006300740072006900630061006C00200050006F00770065007200000000000000FFFEFF014C0002000000FFFEFF1345006C006500630074007200690063
310
0061006C0020004C00690067006800740069006E006700000000000000FFFEFF014B0002000000FFFEFF1945006C0065006300740072006900630061006C00200028005500730065007200200044006500660069006E00650064002900000000000000FFFEFF014A0002000000FFFEFF1945006C0065006300740072006900
310
630061006C00200028005500730065007200200044006500660069006E00650064002900000000000000FFFEFF01490002000000FFFEFF1A45006C0065006300740072006900630061006C00200049006E0073007400720075006D0065006E0074006100740069006F006E00000000000000FFFEFF01590002000000FFFEFF
310
1C45006C0065006300740072006900630061006C00200041007500780069006C0069006100720079002000530079007300740065006D007300000000000000FFFEFF01440002000000FFFEFF1545006C0065006300740072006900630061006C002000440065006D006F006C006900740069006F006E00000000000000FFFE
310
FF01540002000000FFFEFF1D45006C0065006300740072006900630061006C002000540065006C00650063006F006D006D0075006E00690063006100740069006F006E007300000000000000FFFEFF01530002000000FFFEFF0F45006C0065006300740072006900630061006C002000530069007400650000000000000000
310
000000FFFEFF01560002000000FFFEFF1053007500720076006500790020002F0020004D0061007000700069006E0067000500FFFEFF01410002000000FFFEFF0D410065007200690061006C002000530075007200760065007900000000000000FFFEFF014B0002000000FFFEFF1F53007500720076006500790020002F00
310
20004D0061007000700069006E006700200028005500730065007200200044006500660069006E00650064002900000000000000FFFEFF014A0002000000FFFEFF1F53007500720076006500790020002F0020004D0061007000700069006E006700200028005500730065007200200044006500660069006E006500640029
310
00000000000000FFFEFF01490002000000FFFEFF0E4400690067006900740061006C002000530075007200760065007900000000000000FFFEFF01460002000000FFFEFF0C4600690065006C006400200053007500720076006500790000000000000000000000FFFEFF01440002000000FFFEFF07500072006F0063006500
310
730073000E00FFFEFF01410002000000FFFEFF0C500072006F00630065007300730020004100690072007300000000000000FFFEFF01520002000000FFFEFF19500072006F006300650073007300200044007200610069006E0073002000260020005200650063006C00610069006D007300000000000000FFFEFF01510002
310
000000FFFEFF11500072006F0063006500730073002000450071007500690070006D0065006E007400000000000000FFFEFF01500002000000FFFEFF0E500072006F006300650073007300200050006900700069006E006700000000000000FFFEFF014F0002000000FFFEFF0B500072006F00630065007300730020004F00
310
69006C00000000000000FFFEFF01470002000000FFFEFF0D500072006F006300650073007300200047006100730065007300000000000000FFFEFF01580002000000FFFEFF0F500072006F00630065007300730020004500780068006100750073007400000000000000FFFEFF01570002000000FFFEFF0E500072006F0063
310
006500730073002000570061007400650072007300000000000000FFFEFF01450002000000FFFEFF12500072006F006300650073007300200045006C0065006300740072006900630061006C00000000000000FFFEFF01560002000000FFFEFF0E500072006F0063006500730073002000560061006300750075006D000000
310
00000000FFFEFF01440002000000FFFEFF12500072006F0063006500730073002000440065006D006F006C006900740069006F006E00000000000000FFFEFF01430002000000FFFEFF11500072006F00630065007300730020004300680065006D006900630061006C007300000000000000FFFEFF01540002000000FFFEFF
310
18500072006F006300650073007300200045006E0074007200610069006E0065006400200053006F006C00690064007300000000000000FFFEFF01530002000000FFFEFF0C500072006F0063006500730073002000530069007400650000000000000000000000FFFEFF01540002000000FFFEFF12540065006C0065006300
310
6F006D006D0075006E00690063006100740069006F006E0073000900FFFEFF01410002000000FFFEFF0E41007500640069006F0020002F002000560069007300750061006C00000000000000FFFEFF014E0002000000FFFEFF0D440061007400610020004E006500740077006F0072006B007300000000000000FFFEFF014D
310
0002000000FFFEFF0A4D006F006E00690074006F00720069006E006700000000000000FFFEFF014B0002000000FFFEFF21540065006C00650063006F006D006D0075006E00690063006100740069006F006E007300200028005500730065007200200044006500660069006E00650064002900000000000000FFFEFF014A00
310
02000000FFFEFF21540065006C00650063006F006D006D0075006E00690063006100740069006F006E007300200028005500730065007200200044006500660069006E00650064002900000000000000FFFEFF01490002000000FFFEFF0849006E0074006500720063006F006D00000000000000FFFEFF01590002000000FF
310
FEFF0853006500630075007200690074007900000000000000FFFEFF01430002000000FFFEFF1143006C006F0063006B00200061006E0064002000500072006F006700720061006D00000000000000FFFEFF01540002000000FFFEFF09540065006C006500700068006F006E00650000000000000000000000FFFEFF014300
310
02000000FFFEFF0543006900760069006C000900FFFEFF01500002000000FFFEFF0C43006900760069006C00200050006100760069006E006700000000000000FFFEFF014B0002000000FFFEFF1443006900760069006C00200028005500730065007200200044006500660069006E00650064002900000000000000FFFEFF
310
014A0002000000FFFEFF1443006900760069006C00200028005500730065007200200044006500660069006E00650064002900000000000000FFFEFF01490002000000FFFEFF1243006900760069006C00200049006D00700072006F00760065006D0065006E0074007300000000000000FFFEFF01470002000000FFFEFF0D
310
43006900760069006C002000470072006100640069006E006700000000000000FFFEFF01550002000000FFFEFF0F43006900760069006C0020005500740069006C0069007400690065007300000000000000FFFEFF01440002000000FFFEFF1043006900760069006C002000440065006D006F006C006900740069006F006E
310
00000000000000FFFEFF01540002000000FFFEFF1443006900760069006C0020005400720061006E00730070006F00720074006100740069006F006E00000000000000FFFEFF01530002000000FFFEFF0A43006900760069006C002000530069007400650000000000000000000000FFFEFF01530002000000FFFEFF0A5300
310
740072007500630074007500720061006C000600FFFEFF014B0002000000FFFEFF195300740072007500630074007500720061006C00200028005500730065007200200044006500660069006E00650064002900000000000000FFFEFF014A0002000000FFFEFF195300740072007500630074007500720061006C00200028
310
005500730065007200200044006500660069006E00650064002900000000000000FFFEFF01460002000000FFFEFF125300740072007500630074007500720061006C0020004600720061006D0069006E006700000000000000FFFEFF01440002000000FFFEFF155300740072007500630074007500720061006C0020004400
310
65006D006F006C006900740069006F006E00000000000000FFFEFF01420002000000FFFEFF175300740072007500630074007500720061006C002000530075006200730074007200750063007400750072006500000000000000FFFEFF01530002000000FFFEFF0F5300740072007500630074007500720061006C00200053
310
0069007400650000000000000000000000FFFEFF01420002000000FFFEFF0C470065006F0074006500630068006E006900630061006C000200FFFEFF014B0002000000FFFEFF1B470065006F0074006500630068006E006900630061006C00200028005500730065007200200044006500660069006E006500640029000000
310
00000000FFFEFF014A0002000000FFFEFF1B470065006F0074006500630068006E006900630061006C00200028005500730065007200200044006500660069006E00650064002900000000000000000000000180FFFEFF054D0061006A006F0072000300000000000000000000000000000000000000000000000000000000
310
000000FFFEFF002300FFFEFF052D004400650074006C0002000000FFFEFF06440065007400610069006C00000000000000FFFEFF052D0043006C006E00670002000000FFFEFF074300650069006C0069006E006700000000000000FFFEFF052D0052006F006F00660002000000FFFEFF0452006F006F006600000000000000
310
FFFEFF052D00470072006900640002000000FFFEFF0A470072006900640020006C0069006E0065007300000000000000FFFEFF052D00460069007200650002000000FFFEFF1446006900720065002000700072006F00740065006300740069006F006E00200070006C0061006E00000000000000FFFEFF052D00500072006F
310
00740002000000FFFEFF1646006900720065002000700072006F00740065006300740069006F006E002000730079007300740065006D00000000000000FFFEFF052D0043006F006C00730002000000FFFEFF0743006F006C0075006D006E007300000000000000FFFEFF052D004300740072006C0002000000FFFEFF0E4300
310
6F006E00740072006F006C00200050006F0069006E0074007300000000000000FFFEFF052D004500710070006D0002000000FFFEFF09450071007500690070006D0065006E007400000000000000FFFEFF052D00570061006C006C0002000000FFFEFF05570061006C006C007300000000000000FFFEFF052D00500072006F
310
00700002000000FFFEFF08500072006F0070006500720074007900000000000000FFFEFF052D00530065006300740002000000FFFEFF07530065006300740069006F006E00000000000000FFFEFF052D0050006F006C00790002000000FFFEFF0850006F006C00790067006F006E007300000000000000FFFEFF052D004C00
310
69007400650002000000FFFEFF114C00690067006800740069006E006700200066006900780074007500720065007300000000000000FFFEFF052D00410063006300730002000000FFFEFF0B410063006300650073007300200070006C0061006E00000000000000FFFEFF052D00480056004100430002000000FFFEFF0448
310
00560041004300000000000000FFFEFF052D0045006C006500630002000000FFFEFF0A45006C0065006300740072006900630061006C00000000000000FFFEFF052D0054006F0070006F0002000000FFFEFF0A54006F0070006F00670072006100700068007900000000000000FFFEFF052D0043006F006400650002000000
310
FFFEFF1443006F0064006500200063006F006D0070006C00690061006E0063006500200070006C0061006E00000000000000FFFEFF052D0047006C0061007A0002000000FFFEFF0747006C0061007A0069006E006700000000000000FFFEFF052D00540069006E006E0002000000FFFEFF1E54007200690061006E00670075
310
006C00610074006500640020006900720072006500670075006C006100720020006E006500740077006F0072006B00000000000000FFFEFF052D0050006C0061006E0002000000FFFEFF154B0065007900200070006C0061006E002000280066006C006F006F007200200070006C0061006E002900000000000000FFFEFF05
310
2D0046006C006F00720002000000FFFEFF0546006C006F006F007200000000000000FFFEFF052D004600750072006E0002000000FFFEFF0B4600750072006E0069007300680069006E0067007300000000000000FFFEFF052D004200650061006D0002000000FFFEFF054200650061006D007300000000000000FFFEFF052D
310
0044006F006F00720002000000FFFEFF0544006F006F0072007300000000000000FFFEFF052D0041006E006E006F0002000000FFFEFF0A41006E006E006F0074006100740069006F006E00000000000000FFFEFF052D00450076006100630002000000FFFEFF0F450076006100630075006100740069006F006E0020007000
310
6C0061006E00000000000000FFFEFF052D00530069007400650002000000FFFEFF095300690074006500200070006C0061006E00000000000000FFFEFF052D0043006F006E00760002000000FFFEFF1143006F006E0076006500790069006E0067002000730079007300740065006D007300000000000000FFFEFF052D0053
310
006C006100620002000000FFFEFF0553006C00610062007300000000000000FFFEFF052D0043006F006D006D0002000000FFFEFF12540065006C00650063006F006D006D0075006E00690063006100740069006F006E007300000000000000FFFEFF052D005300740072006D0002000000FFFEFF0844007200610069006E00
310
610067006500000000000000FFFEFF052D00410072006500610002000000FFFEFF044100720065006100000000000000FFFEFF052D0045006C006500760002000000FFFEFF0945006C00650076006100740069006F006E000000000000000180FFFEFF074D0069006E006F00720020003100040000000000000000F00E7704
310
00000000000000000000000000000000F00000FFFEFF006A00FFFEFF052D004F00700065006E0002000000FFFEFF084F00700065006E0069006E0067007300000000000000FFFEFF052D005300690067006E0002000000FFFEFF055300690067006E007300000000000000FFFEFF052D0043006C006E00670002000000FFFE
310
FF074300650069006C0069006E006700000000000000FFFEFF052D00570069006400650002000000FFFEFF19570069006400650020007700650069006700680074002000670072006100700068006900630020006C0069006E0065007300000000000000FFFEFF052D00530044004600460002000000FFFEFF105300750070
310
0070006C0079002000640069006600660075007300650072007300000000000000FFFEFF052D004D0063007500740002000000FFFEFF164D00610069006E00200063007500740020006C0069006E006500200065006C0065006D0065006E0074007300000000000000FFFEFF052D00470072006900640002000000FFFEFF04
310
4700720069006400000000000000FFFEFF052D00460069007200650002000000FFFEFF0A46006900720065002000770061006C006C007300000000000000FFFEFF052D00410062006F00760002000000FFFEFF0E45006C0065006D0065006E00740073002000610062006F0076006500000000000000FFFEFF052D00500072
310
006F00660002000000FFFEFF08500072006F00660069006C0065007300000000000000FFFEFF052D00530079006D00620002000000FFFEFF07530079006D0062006F006C007300000000000000FFFEFF052D00480065007600790002000000FFFEFF1A48006500610076007900200077006500690067006800740020006700
310
72006100700068006900630020006C0069006E0065007300000000000000FFFEFF052D00430061007600690002000000FFFEFF06430061007600690074007900000000000000FFFEFF052D005500740069006C0002000000FFFEFF095500740069006C0069007400690065007300000000000000FFFEFF052D004E006F0074
310
00650002000000FFFEFF054E006F00740065007300000000000000FFFEFF052D00530065006100740002000000FFFEFF07530065006100740069006E006700000000000000FFFEFF052D00460072006500650002000000FFFEFF0C46007200650065007300740061006E00640069006E006700000000000000FFFEFF052D00
310
460061007300630002000000FFFEFF074600610073006300690061007300000000000000FFFEFF052D00500072006800740002000000FFFEFF0E5000610072007400690061006C002000680065006900670068007400000000000000FFFEFF052D004D00610072006B0002000000FFFEFF1D4D00610072006B006500720073
310
002C00200062007200650061006B0020006D00610072006B0073002C0020006C00650061006400650072007300000000000000FFFEFF052D00530070006300650002000000FFFEFF0553007000610063006500000000000000FFFEFF052D004900640065006E0002000000FFFEFF134900640065006E007400690066006900
310
63006100740069006F006E0020005400610067007300000000000000FFFEFF052D0057006B007300660002000000FFFEFF1E530079007300740065006D00200077006F0072006B0020007300750072006600610063006500200063006F006D0070006F006E0065006E0074007300000000000000FFFEFF052D005200610069
310
00730002000000FFFEFF06520061006900730065006400000000000000FFFEFF052D004A0061006D00620002000000FFFEFF1544006F006F007200200061006E0064002000770069006E0064006F00770020006A0061006D0062007300000000000000FFFEFF052D00450076007400720002000000FFFEFF1B45006C006500
310
7600610074006F00720020006300610072007300200061006E0064002000650071007500690070006D0065006E007400000000000000FFFEFF052D00540065007800740002000000FFFEFF045400650078007400000000000000FFFEFF052D004500710070006D0002000000FFFEFF09450071007500690070006D0065006E
310
007400000000000000FFFEFF052D00570061006C006C0002000000FFFEFF05570061006C006C007300000000000000FFFEFF052D00460069006C00650002000000FFFEFF0D460069006C006500200063006100620069006E00650074007300000000000000FFFEFF052D004100730073006D0002000000FFFEFF0A41007300
310
730065006D0062006C00690065007300000000000000FFFEFF052D0046006E007300680002000000FFFEFF08460069006E0069007300680065007300000000000000FFFEFF052D004D00610073006B0002000000FFFEFF1241004400540020004D00610073006B0069006E00670020004F0062006A00650063007400000000
310
000000FFFEFF052D005400690074006C0002000000FFFEFF18440072006100770069006E00670020006F0072002000640065007400610069006C0020007400690074006C0065007300000000000000FFFEFF052D004C0069007400650002000000FFFEFF084C00690067006800740069006E006700000000000000FFFEFF05
310
2D00410063006300730002000000FFFEFF06410063006300650073007300000000000000FFFEFF052D004C00610062006C0002000000FFFEFF064C006100620065006C007300000000000000FFFEFF052D00520065006600720002000000FFFEFF195200650066006500720065006E00630065002C00200065007800740065
310
0072006E0061006C002000660069006C0065007300000000000000FFFEFF052D004D00650064006D0002000000FFFEFF1B4D0065006400690075006D0020007700650069006700680074002000670072006100700068006900630020006C0069006E0065007300000000000000FFFEFF052D00530074007200730002000000
310
FFFEFF215300740061006900720020007400720065006100640073002C00200065007300630061006C00610074006F00720073002C0020006C00610064006400650072007300000000000000FFFEFF052D00430075007200740002000000FFFEFF0C4300750072007400610069006E002000570061006C006C000000000000
310
00FFFEFF052D00440065006D006F0002000000FFFEFF0A440065006D006F006C006900740069006F006E00000000000000FFFEFF052D00560069006500770002000000FFFEFF13560069006500770070006F0072007400200044006500660069006E006900740069006F006E00000000000000FFFEFF052D00440069006D00
310
730002000000FFFEFF0A440069006D0065006E00730069006F006E007300000000000000FFFEFF052D0053006C006300650002000000FFFEFF0653006C006900630065007300000000000000FFFEFF052D0043006F006E006E0002000000FFFEFF0B43006F006E006E0065006300740069006F006E007300000000000000FF
310
FEFF052D0042006C006F00770002000000FFFEFF0E45006C0065006D0065006E00740073002000620065006C006F007700000000000000FFFEFF052D00460069006E00650002000000FFFEFF19460069006E00650020007700650069006700680074002000670072006100700068006900630020006C0069006E0065007300
310
000000000000FFFEFF052D00530075007300700002000000FFFEFF12530075007300700065006E00640065006400200065006C0065006D0065006E0074007300000000000000FFFEFF052D004C00650076006C0002000000FFFEFF274C006500760065006C0020006300680061006E006700650073002C002000720061006D
310
00700073002C00200070006900740073002C002000640065007000720065007300730069006F006E007300000000000000FFFEFF052D00460069007800640002000000FFFEFF0F460069007800650064002000650071007500690070006D0065006E007400000000000000FFFEFF052D004F0063006300700002000000FFFE
310
FF1A4F00630063007500700061006E00740020006F007200200065006D0070006C006F0079006500650020006E0061006D0065007300000000000000FFFEFF052D00480069006400650002000000FFFEFF0E480069006400640065006E0020006F0062006A006500630074007300000000000000FFFEFF052D004100640074
310
00760002000000FFFEFF1141006400640069007400690076006500200065006C0065006D0065006E0074007300000000000000FFFEFF052D00520064006D00650002000000FFFEFF1B52006500610064002D006D00650020006C006100790065007200200028006E006F007400200070006C006F0074007400650064002900
310
000000000000FFFEFF052D005300630072006E0002000000FFFEFF14530063007200650065006E006500640020004200610063006B00670072006F0075006E0064007300000000000000FFFEFF052D00460069007800740002000000FFFEFF1170006C0075006D00620069006E006700200066006900780074007500720065
310
007300000000000000FFFEFF052D004C00650067006E0002000000FFFEFF144C006500670065006E00640073002C002000530079006D0062006F006C0020006B00650079007300000000000000FFFEFF052D0043006E007400720002000000FFFEFF0A430065006E007400650072006C0069006E006500000000000000FFFE
310
FF052D00420064007200790002000000FFFEFF0842006F0075006E006400610072007900000000000000FFFEFF052D0050006F007700720002000000FFFEFF0550006F00770065007200000000000000FFFEFF052D00470072007000730002000000FFFEFF06470072006F00750070007300000000000000FFFEFF052D004B
310
00650079006E0002000000FFFEFF084B00650079006E006F00740065007300000000000000FFFEFF052D00420072006300650002000000FFFEFF06420072006100630065007300000000000000FFFEFF052D005300700063006C0002000000FFFEFF0B5300700065006300690061006C007400690065007300000000000000
310
FFFEFF052D004F0074006C006E0002000000FFFEFF074F00750074006C0069006E006500000000000000FFFEFF052D005400700074006E0002000000FFFEFF1154006F0069006C0065007400200070006100720074006900740069006F006E007300000000000000FFFEFF052D005200650066006C0002000000FFFEFF0E52
310
00650066006C0065006300740065006400200050006C0061006E00000000000000FFFEFF052D005400680069006E0002000000FFFEFF195400680069006E0020007700650069006700680074002000670072006100700068006900630020006C0069006E0065007300000000000000FFFEFF052D005000650070006C000200
310
0000FFFEFF06500065006F0070006C006500000000000000FFFEFF052D004F0076006800640002000000FFFEFF084F007600650072006800650061006400000000000000FFFEFF052D004800720061006C0002000000FFFEFF16480061006E0064007200610069006C0073002C002000670075006100720064002000720061
310
0069006C007300000000000000FFFEFF052D004D0061007400630002000000FFFEFF0B4D00610074006300680020006C0069006E0065007300000000000000FFFEFF052D00520044004600460002000000FFFEFF14520065007400750072006E00200061006900720020006400690066006600750073006500720073000000
310
00000000FFFEFF052D00540074006C00620002000000FFFEFF1642006F007200640065007200200061006E00640020007400690074006C006500200062006C006F0063006B00000000000000FFFEFF052D00530077006300680002000000FFFEFF0853007700690074006300680065007300000000000000FFFEFF052D0041
310
00700070006C0002000000FFFEFF0A4100700070006C00690061006E00630065007300000000000000FFFEFF052D00540065006500730002000000FFFEFF094D00610069006E0020007400650065007300000000000000FFFEFF052D005700640077006B0002000000FFFEFF16410072006300680069007400650063007400
310
7500720061006C00200077006F006F00640077006F0072006B00000000000000FFFEFF052D004C0069006E00650002000000FFFEFF0D44006500660069006E0069006E00670020004C0069006E006500000000000000FFFEFF052D004D0061007300730002000000FFFEFF104D0061007300730069006E006700200045006C
310
0065006D0065006E0074007300000000000000FFFEFF052D005400610062006C0002000000FFFEFF0B440061007400610020007400610062006C0065007300000000000000FFFEFF052D00540068006C00640002000000FFFEFF0A5400680072006500730068006F006C0064007300000000000000FFFEFF052D0053006300
310
6800640002000000FFFEFF095300630068006500640075006C0065007300000000000000FFFEFF052D00460075006C006C0002000000FFFEFF0B460075006C006C002D00680065006900670068007400000000000000FFFEFF052D00480065006100640002000000FFFEFF1744006F006F007200200061006E006400200077
310
0069006E0064006F00770020006800650061006400650072007300000000000000FFFEFF052D004D006F007600650002000000FFFEFF124D006F0076006500610062006C0065002000650071007500690070006D0065006E007400000000000000FFFEFF052D00420072006E00670002000000FFFEFF1A4200650061007200
310
69006E0067007300200026002000640069007300740061006E006300650020006C006100620065006C007300000000000000FFFEFF052D0043006F006D00700002000000FFFEFF1349006E007400650072006E0061006C00200063006F006D0070006F006E0065006E0074007300000000000000FFFEFF052D00530074006F
310
00720002000000FFFEFF19530079007300740065006D002000730074006F007200610067006500200063006F006D0070006F006E0065006E0074007300000000000000FFFEFF052D0050006B006E00670002000000FFFEFF075000610072006B0069006E006700000000000000FFFEFF052D004E00690063006E0002000000
310
FFFEFF0F4E006F007400200069006E00200063006F006E0074007200610063007400000000000000FFFEFF052D00430068006100730002000000FFFEFF0543006800610073006500000000000000FFFEFF052D004E0070006C00740002000000FFFEFF204E006F006E002D0070006C006F007400740069006E006700200067
310
00720061007000680069006300200069006E0066006F0072006D006100740069006F006E00000000000000FFFEFF052D005600680063006C0002000000FFFEFF08560065006800690063006C0065007300000000000000FFFEFF052D00520065007600730002000000FFFEFF095200650076006900730069006F006E007300
310
000000000000FFFEFF052D00500061007400740002000000FFFEFF19540065007800740075007200650020006F00720020006800610074006300680020007000610074007400650072006E007300000000000000FFFEFF052D0053006C006100620002000000FFFEFF0553006C00610062007300000000000000FFFEFF052D
310
0043006F006D006D0002000000FFFEFF1A540065006C006500700068006F006E0065002C00200063006F006D006D0075006E00690063006100740069006F006E0073002000000000000000FFFEFF052D00430061007300650002000000FFFEFF08430061007300650077006F0072006B00000000000000FFFEFF052D005200
310
65007600630002000000FFFEFF0F5200650076006900730069006F006E00200063006C006F00750064007300000000000000FFFEFF052D0050006C006E00740002000000FFFEFF0650006C0061006E0074007300000000000000FFFEFF052D00530075006200740002000000FFFEFF14530075006200740072006100630074
310
00690076006500200065006C0065006D0065006E0074007300000000000000FFFEFF052D0050006E006C00730002000000FFFEFF0D530079007300740065006D002000700061006E0065006C007300000000000000FFFEFF052D00520069007300720002000000FFFEFF0C5300740061006900720020007200690073006500
310
72007300000000000000FFFEFF052D00530069006C006C0002000000FFFEFF0C570069006E0064006F0077002000730069006C006C0073000000000000000180FFFEFF074D0069006E006F0072002000320005000000004164642062656C6F77207468652073656C6563746564206974656DFFFEFF001600FFFEFF052D0041
310
0062006F00760002000000FFFEFF0E45006C0065006D0065006E00740073002000610062006F0076006500000000000000FFFEFF052D004E006F007400650002000000FFFEFF16470065006E006500720061006C0020005400650078007400200061006E00640020004E006F00740065007300000000000000FFFEFF052D00
310
460061007300630002000000FFFEFF06460061007300630069006100000000000000FFFEFF052D004900640065006E0002000000FFFEFF0A4900640065006E00740069006600690065007200000000000000FFFEFF052D0055006E006900740002000000FFFEFF0455006E0069007400000000000000FFFEFF052D00540069
310
0074006C0002000000FFFEFF065400690074006C0065007300000000000000FFFEFF052D00440069006D00730002000000FFFEFF0A440069006D0065006E00730069006F006E007300000000000000FFFEFF052D0053006C006300650002000000FFFEFF0653006C006900630065007300000000000000FFFEFF052D004700
310
6C0061007A0002000000FFFEFF0747006C0061007A0069006E006700000000000000FFFEFF052D00480069006400650002000000FFFEFF0F480069006400640065006E00200065006C0065006D0065006E0074007300000000000000FFFEFF052D00420064007200790002000000FFFEFF0D4500640067006500200062006F
310
0075006E006400610072007900000000000000FFFEFF052D00470072007000730002000000FFFEFF06470072006F00750070007300000000000000FFFEFF052D004F0074006C006E0002000000FFFEFF074F00750074006C0069006E006500000000000000FFFEFF052D005200650066006C0002000000FFFEFF0F52006500
310
66006C0065006300740065006400200050006C0061006E007300000000000000FFFEFF052D005400680069006E0002000000FFFEFF0E4D0069006E006F00720020006C0069006E00650077006F0072006B00000000000000FFFEFF052D004C0069006E00650002000000FFFEFF10470065006E006500720061006C0020006C
310
0069006E00650077006F0072006B00000000000000FFFEFF052D004E0070006C00740002000000FFFEFF154E006F006E002D0070006C006F007400740069006E006700200065006C0065006D0065006E0074007300000000000000FFFEFF052D00530066006900740002000000FFFEFF0653006F0066006600690074000000
310
00000000FFFEFF052D00500061007400740002000000FFFEFF0E4800610074006300680020007000610074007400650072006E007300000000000000FFFEFF052D005300630061006C0002000000FFFEFF10470072006100700068006900630061006C0020005300630061006C0065007300000000000000FFFEFF052D0052
310
0069007300720002000000FFFEFF06520069007300650072007300000000000000FFFEFF052D00530069006C006C0002000000FFFEFF05530069006C006C0073000000000000000180FFFEFF06530074006100740075007300060000000000000000A434770470040000B10000005073770400000000050000FFFEFF000F00
310
FFFEFF022D00540002000000FFFEFF0E540065006D0070006F007200610072007900200077006F0072006B00000000000000FFFEFF022D00450002000000FFFEFF124500780069007300740069006E006700200074006F002000720065006D00610069006E00000000000000FFFEFF022D00380002000000FFFEFF07500068
310
0061007300650020003800000000000000FFFEFF022D00390002000000FFFEFF075000680061007300650020003900000000000000FFFEFF022D00360002000000FFFEFF075000680061007300650020003600000000000000FFFEFF022D00370002000000FFFEFF075000680061007300650020003700000000000000FFFE
310
FF022D004E0002000000FFFEFF084E0065007700200077006F0072006B00000000000000FFFEFF022D00340002000000FFFEFF075000680061007300650020003400000000000000FFFEFF022D00350002000000FFFEFF075000680061007300650020003500000000000000FFFEFF022D00320002000000FFFEFF07500068
310
0061007300650020003200000000000000FFFEFF022D004D0002000000FFFEFF114900740065006D007300200074006F0020006200650020006D006F00760065006400000000000000FFFEFF022D00330002000000FFFEFF075000680061007300650020003300000000000000FFFEFF022D00310002000000FFFEFF075000
310
680061007300650020003100000000000000FFFEFF022D00460002000000FFFEFF0B460075007400750072006500200077006F0072006B00000000000000FFFEFF022D00440002000000FFFEFF144500780069007300740069006E006700200074006F002000640065006D006F006C006900730068000000000000000600FF
310
FF04001A004163416563556B4C61796572436F6D706F6E656E744669656C64FFFEFF174400690073006300690070006C0069006E0065002000440065007300690067006E00610074006F0072002000310001000000FFFEFF0440002C0040004000000000000100000000FFFEFF014100000000000780FFFEFF174400690073
310
006300690070006C0069006E0065002000440065007300690067006E00610074006F0072002000320001000000FFFEFF0440002C0040004000010000000100000000FFFEFF014400000000000780FFFEFF054D0061006A006F00720005000000FFFEFF052D00400040004000400000000000010000002DFFFEFF052D005700
310
61006C006C00000000000780FFFEFF064D0069006E006F007200310005000000FFFEFF022D002A0001000000010000002DFFFEFF052D004900640065006E00000000000780FFFEFF064D0069006E006F007200320005000000FFFEFF022D002A0001000000010000002DFFFEFF052D005400650078007400000000000780FF
310
FEFF0653007400610074007500730002000000FFFEFF022D002A0001000000010000002DFFFEFF022D004E0000000000050000010203040500FFFEFF00FFFEFF0320002D002000FFFEFF022C002000FFFEFF012000FFFEFF0320002D002000FFFEFF00
  0
XRECORD
  5
AD685
102
{ACAD_REACTORS
330
A21DF
102
}
330
A21DF
100
AcDbXrecord
280
     1
102
DISPLAYNAME
  1
Imperial24
102
FLAGS
 90
        0
  0
XRECORD
  5
AD684
102
{ACAD_REACTORS
330
A21DD
102
}
330
A21DD
100
AcDbXrecord
280
     1
102
DISPLAYNAME
  1
Imperial24
102
FLAGS
 90
        0
  0
CELLSTYLEMAP
  5
AD683
102
{ACAD_REACTORS
330
B4E
102
}
330
B4E
100
AcDbCellStyleMap
 90
        3
300
CELLSTYLE
  1
TABLEFORMAT_BEGIN
 90
        5
170
     1
 91
        0
 92
    32768
 62
   257
 93
        1
300
CONTENTFORMAT
  1
CONTENTFORMAT_BEGIN
 90
        0
 91
        0
 92
      512
 93
        0
300

 40
0.0
140
1.0
 94
        5
 62
     0
340
11
144
0.25
309
CONTENTFORMAT_END
171
     1
301
MARGIN
  1
CELLMARGIN_BEGIN
 40
0.06
 40
0.06
 40
0.06
 40
0.06
 40
0.18
 40
0.18
309
CELLMARGIN_END
 94
        6
 95
        1
302
GRIDFORMAT
  1
GRIDFORMAT_BEGIN
 90
        0
 91
        1
 62
     0
 92
       -2
340
0
 93
        0
 40
0.045
309
GRIDFORMAT_END
 95
        2
302
GRIDFORMAT
  1
GRIDFORMAT_BEGIN
 90
        0
 91
        1
 62
     0
 92
       -2
340
0
 93
        0
 40
0.045
309
GRIDFORMAT_END
 95
        4
302
GRIDFORMAT
  1
GRIDFORMAT_BEGIN
 90
        0
 91
        1
 62
     0
 92
       -2
340
0
 93
        0
 40
0.045
309
GRIDFORMAT_END
 95
        8
302
GRIDFORMAT
  1
GRIDFORMAT_BEGIN
 90
        0
 91
        1
 62
     0
 92
       -2
340
0
 93
        0
 40
0.045
309
GRIDFORMAT_END
 95
       16
302
GRIDFORMAT
  1
GRIDFORMAT_BEGIN
 90
        0
 91
        1
 62
     0
 92
       -2
340
0
 93
        0
 40
0.045
309
GRIDFORMAT_END
 95
       32
302
GRIDFORMAT
  1
GRIDFORMAT_BEGIN
 90
        0
 91
        1
 62
     0
 92
       -2
340
0
 93
        0
 40
0.045
309
GRIDFORMAT_END
309
TABLEFORMAT_END
  1
CELLSTYLE_BEGIN
 90
        1
 91
        1
300
_TITLE
309
CELLSTYLE_END
300
CELLSTYLE
  1
TABLEFORMAT_BEGIN
 90
        5
170
     1
 91
        0
 92
        0
 62
   257
 93
        1
300
CONTENTFORMAT
  1
CONTENTFORMAT_BEGIN
 90
        0
 91
        0
 92
      512
 93
        0
300

 40
0.0
140
1.0
 94
        5
 62
     0
340
11
144
0.18
309
CONTENTFORMAT_END
171
     1
301
MARGIN
  1
CELLMARGIN_BEGIN
 40
0.06
 40
0.06
 40
0.06
 40
0.06
 40
0.18
 40
0.18
309
CELLMARGIN_END
 94
        6
 95
        1
302
GRIDFORMAT
  1
GRIDFORMAT_BEGIN
 90
        0
 91
        1
 62
     0
 92
       -2
340
0
 93
        0
 40
0.045
309
GRIDFORMAT_END
 95
        2
302
GRIDFORMAT
  1
GRIDFORMAT_BEGIN
 90
        0
 91
        1
 62
     0
 92
       -2
340
0
 93
        0
 40
0.045
309
GRIDFORMAT_END
 95
        4
302
GRIDFORMAT
  1
GRIDFORMAT_BEGIN
 90
        0
 91
        1
 62
     0
 92
       -2
340
0
 93
        0
 40
0.045
309
GRIDFORMAT_END
 95
        8
302
GRIDFORMAT
  1
GRIDFORMAT_BEGIN
 90
        0
 91
        1
 62
     0
 92
       -2
340
0
 93
        0
 40
0.045
309
GRIDFORMAT_END
 95
       16
302
GRIDFORMAT
  1
GRIDFORMAT_BEGIN
 90
        0
 91
        1
 62
     0
 92
       -2
340
0
 93
        0
 40
0.045
309
GRIDFORMAT_END
 95
       32
302
GRIDFORMAT
  1
GRIDFORMAT_BEGIN
 90
        0
 91
        1
 62
     0
 92
       -2
340
0
 93
        0
 40
0.045
309
GRIDFORMAT_END
309
TABLEFORMAT_END
  1
CELLSTYLE_BEGIN
 90
        2
 91
        1
300
_HEADER
309
CELLSTYLE_END
300
CELLSTYLE
  1
TABLEFORMAT_BEGIN
 90
        5
170
     1
 91
        0
 92
        0
 62
   257
 93
        1
300
CONTENTFORMAT
  1
CONTENTFORMAT_BEGIN
 90
        0
 91
        0
 92
      512
 93
        0
300

 40
0.0
140
1.0
 94
        2
 62
     0
340
11
144
0.18
309
CONTENTFORMAT_END
171
     1
301
MARGIN
  1
CELLMARGIN_BEGIN
 40
0.06
 40
0.06
 40
0.06
 40
0.06
 40
0.18
 40
0.18
309
CELLMARGIN_END
 94
        6
 95
        1
302
GRIDFORMAT
  1
GRIDFORMAT_BEGIN
 90
        0
 91
        1
 62
     0
 92
       -2
340
0
 93
        0
 40
0.045
309
GRIDFORMAT_END
 95
        2
302
GRIDFORMAT
  1
GRIDFORMAT_BEGIN
 90
        0
 91
        1
 62
     0
 92
       -2
340
0
 93
        0
 40
0.045
309
GRIDFORMAT_END
 95
        4
302
GRIDFORMAT
  1
GRIDFORMAT_BEGIN
 90
        0
 91
        1
 62
     0
 92
       -2
340
0
 93
        0
 40
0.045
309
GRIDFORMAT_END
 95
        8
302
GRIDFORMAT
  1
GRIDFORMAT_BEGIN
 90
        0
 91
        1
 62
     0
 92
       -2
340
0
 93
        0
 40
0.045
309
GRIDFORMAT_END
 95
       16
302
GRIDFORMAT
  1
GRIDFORMAT_BEGIN
 90
        0
 91
        1
 62
     0
 92
       -2
340
0
 93
        0
 40
0.045
309
GRIDFORMAT_END
 95
       32
302
GRIDFORMAT
  1
GRIDFORMAT_BEGIN
 90
        0
 91
        1
 62
     0
 92
       -2
340
0
 93
        0
 40
0.045
309
GRIDFORMAT_END
309
TABLEFORMAT_END
  1
CELLSTYLE_BEGIN
 90
        3
 91
        2
300
_DATA
309
CELLSTYLE_END
  0
ENDSEC
  0
SECTION
  2
ACDSDATA
 70
     2
 71
     8
  0
ACDSSCHEMA
 90
        0
  1
AcDb_Thumbnail_Schema
  2
AcDbDs::ID
280
    10
 91
        8
  2
Thumbnail_Data
280
    15
 91
        0
101
ACDSRECORD
 95
        0
 90
        1
  2
AcDbDs::TreatedAsObjectData
280
     1
291
     1
101
ACDSRECORD
 95
        0
 90
        2
  2
AcDbDs::Legacy
280
     1
291
     1
101
ACDSRECORD
  1
AcDbDs::ID
 90
        3
  2
AcDs:Indexable
280
     1
291
     1
101
ACDSRECORD
  1
AcDbDs::ID
 90
        4
  2
AcDbDs::HandleAttribute
280
     7
282
     1
  0
ACDSSCHEMA
 90
        1
  1
AcDbDs::TreatedAsObjectDataSchema
  2
AcDbDs::TreatedAsObjectData
280
     1
 91
        0
  0
ACDSSCHEMA
 90
        2
  1
AcDbDs::LegacySchema
  2
AcDbDs::Legacy
280
     1
 91
        0
  0
ACDSSCHEMA
 90
        3
  1
AcDbDs::IndexedPropertySchema
  2
AcDs:Indexable
280
     1
 91
        0
  0
ACDSSCHEMA
 90
        4
  1
AcDbDs::HandleAttributeSchema
  2
AcDbDs::HandleAttribute
280
     7
 91
        1
284
     1
  0
ACDSRECORD
 90
        0
  2
AcDbDs::ID
280
    10
320
A21A1
  2
Thumbnail_Data
280
    15
 94
     3279
310
89504E470D0A1A0A0000000D4948445200000100000000C508030000008CFEDCE700000300504C5445FFFFFF000000C8C8C80000000000000000000000000000000000000000000000000000330000660000990000CC0000FF0033000033330033660033990033CC0033FF0066000066330066660066990066CC0066FF0099
310
000099330099660099990099CC0099FF00CC0000CC3300CC6600CC9900CCCC00CCFF00FF0000FF3300FF6600FF9900FFCC00FFFF3300003300333300663300993300CC3300FF3333003333333333663333993333CC3333FF3366003366333366663366993366CC3366FF3399003399333399663399993399CC3399FF33CC00
310
33CC3333CC6633CC9933CCCC33CCFF33FF0033FF3333FF6633FF9933FFCC33FFFF6600006600336600666600996600CC6600FF6633006633336633666633996633CC6633FF6666006666336666666666996666CC6666FF6699006699336699666699996699CC6699FF66CC0066CC3366CC6666CC9966CCCC66CCFF66FF0066
310
FF3366FF6666FF9966FFCC66FFFF9900009900339900669900999900CC9900FF9933009933339933669933999933CC9933FF9966009966339966669966999966CC9966FF9999009999339999669999999999CC9999FF99CC0099CC3399CC6699CC9999CCCC99CCFF99FF0099FF3399FF6699FF9999FFCC99FFFFCC0000CC00
310
33CC0066CC0099CC00CCCC00FFCC3300CC3333CC3366CC3399CC33CCCC33FFCC6600CC6633CC6666CC6699CC66CCCC66FFCC9900CC9933CC9966CC9999CC99CCCC99FFCCCC00CCCC33CCCC66CCCC99CCCCCCCCCCFFCCFF00CCFF33CCFF66CCFF99CCFFCCCCFFFFFF0000FF0033FF0066FF0099FF00CCFF00FFFF3300FF3333
310
FF3366FF3399FF33CCFF33FFFF6600FF6633FF6666FF6699FF66CCFF66FFFF9900FF9933FF9966FF9999FF99CCFF99FFFFCC00FFCC33FFCC66FFCC99FFCCCCFFCCFFFFFF00FFFF33FFFF66FFFF99FFFFCCFFFFFF0000000D0D0D1A1A1A2828283535354343435050505D5D5D6B6B6B787878868686939393A1A1A1AEAEAEBB
310
BBBBC9C9C9D6D6D6E4E4E4F1F1F1FFFFFF000000000000000000000000000000000000000000000000000000000000B0E2D235000004754944415478DAED9C4B9283201086FB44DC7FC5497A35EB59CC11263106511EA28982F851496A8AE952FAA3FBE76522BF372FF22BF72D0000000042003F3FCF77A79F65003A2EA511
310
D06B29022000B839801F0000000088200048010000000088200048010000000088200048010000000088200048010000000088200048010000000088200048010000000088200048010000000088E0C14535563795DE013C3CD4B301B49302A38B7A530083735127EF01409DAFD914282B1704A0190D90ED5D7F35117CF997
310
D200196AF784C05500A8FBD4540E1C08A07E0A4CFE27827DB7085C0280AA2F02C901B2DBA9B0CABAFF1DAF05F450FFDB17419522FFBB1D060BFD2F1B05AE9702AAE905600D005AB1FB0B52A03B00B3F02FC981C34701AD11FEA287DE7B93086A85EE3F7616D02C00D5ADC3C02913213DBDFB8340680B80318FD7F036F9BB6C
310
3454671821D11000F37A0D6DCD7AF6369422435567A84D033041E7A5DDDA6038DDC468342B1A11C1D08D84631B0D53F7680C403C992395DB0C83D9CC64D8580A183125D1BED550D3868B7F595B0380F5CADFDF9F9D97684D91D1FB4F75553630B2EB008E3F1758342968A58DB4FB5B461A54D9D301A897AF8FDB2F1BF0AC99
310
47B6353666344F01FBECCDB954F8D77ED5DBC0AD48081C7D38AAE9044EE576A9E1CADC20B61F60772E8997CBE372005ADEDE6F1BC63AF55400CF14D03D3DFB1D436D02C07C86523F042A0C83534798CCA426EDD62786611054990768B4B5B3F6E6DCFAC850D3717EDE54F8D50A132C6013BE7CD7505B003084A231D979BD49
310
86F287865A0F807F2EA079C11253A86C3B0CB5BA068CCDC8EC691853B6F2DF67A82D00D07C8F19291CDE7718B6100163C25501A0F5864167652B16ADB81F30ED083D16EFCB0E7B574DFDE5D7989851ACC63C6B6246EF31607D397CEE8648DD00F85E08ECDD154EECF0976E0A3E0C6D28F7568AB7C4AA4E8593B2550A65300C
310
3D303673C5F6CE054C5957270DD7019886B7C5438F730BFAA86124866DE68A6D9E0EBF5D33B27AE61718DAE81A3F79C5364F87C7F3CED533CF98610240EA8A2D1F8F9BD29B991519B7992BF6F77C80DDB6CDD52F006F41DF2C0001C0CD01FC00E0803B6F042000E80E80BD0E80231E979F16FAAA5FDEE3B80A80650A54F1BF
310
5E0A8400E45E00A6F14D552A160000A09208028014000000008008D62F00A89E021702F0F923599706E07EC6E5A600A6AFF2EA3B16A607F5BCB70EFB97F3E7F816E6DEF37D53AD7897381372A908CEBFC1177DF4DAB9B50BC0DCA24100FEC82D1A71C907E0D5785D2C2968817D83293086E8AB7BC5B5553CC70300BE572211
310
3B1D2F2BAEA26D002E6EBB289B018CEA27E7FF92462311306AB4D300A78722F36C7FE5486325F98079B908BAC16AA966018016E74B9F03F0BC0F7EC071A16EFD01082642D1AB379D02C74E8583F1BC4B0099C5D05D00B021020076840000000020820020050000000020820020050000000020820020050000000020820020
310
05000000002082002005000000002082002005000000002082DD01E8B894A5C0D3AED7CF9208B85101000000F03B7CDCB9DC1EC03FB880F6FA256BD0E60000000049454E44AE42608244AE42608203501B0CAD7F4CD080A100A8EB29B3DA5612A5AB7EB5DDE72F2BB5AFA22AB6B55449ABDF2A802DE390D771B26F0026D11E
310
1480AA7B3B00608237CB6E016303300B2B77EA02090064D722989056E83008E3017012A101016CA9B0942FD4BF49110C35864603E03787C77281174B2E80F28B797D0B005237CF1B0780C60ECCE88CDEFAED58E01B3074F4F4DC8EB622EF6F6BD85796089EB7F9BC78FEEE6E07CC28008AE5F20A0340D847E5ECCA58EFC13A
310
E09F09312465F7D32570013477DE9AA292F25066F874885CA26100669F3BFC6CF94504F10460EFD34008EFFBDB8CCADF7DAD4C00877E59A6DC3B002382A845109D896A83003019105EFF375FCA15733341C46087E6300000A0A78600B7061940BB1D220C805D8001300006C022C800D80518000360002C820D00E8B8A4B9C0
310
7A5EAFAF2916305061000C8001FCA99791CBF000FE01BBB01E4B17DFBD280000000049454E44AE426082848E6C5F86312006707D48ACE8A191F83644714073872DA22A004C5FA01467E70B266F08E07CCB18AA647EA42F90888BBEF501821D2285064877D8DE10806C87C8D10E5B5D00A49BA644F5C1B4EE1C0C604848EC5C
310
D3B04AAD842E00B2A8B0B8649EAA95B82900E0F7D0A8ECAFF2FBE74F03B8CE14E64FF7636501F704C0347818EEC2595F60100010CD80533B44321CCA4CE10300583843CC1E1AF550B9BD8F29BCE531F7BC00BF658CB5ADC2BA7B00D8975C921B94B78CA1DC05956AB0685A50E6063F6EA96D4F548A7E0F40D8B98D8510B4C8
310
EE21CD7117349AC2588D3B45FB06392D6338EEC2786708E55AA0AA6593CCD0672DB5D3969A5A0010328002C0DA14970C9938F585DCE05900753B4B6F62A4AB1AACBFE7430040B58DE1BA73140FE2DFC0F08EA3AF74E7E8D500E257612D33C4D3005C77412A03BEE80B602D370827CBA148FB491780BF2300496F715E06F420
310
42A2D817C046585C98016D784F9A9D21ACCF80132D632A0123B5005EFA0E8B6A90F85366C4E55085F704561D80F02AD7E0CCE604B2CDD3DC0C68A39CC2AA04B05502196BF31E5F266DA9296D19439453685C02BB6DF60260DD673FAC7F9CD9B662C01319D046C0E800C0353D454DD4DF6D07B0FD62004F64401BF1D126808B
310
5A6BBB81BABB0F269F0126EEA6C7CE8036CA291A00F0B27E82EBCDDE019032E06C4B6D6ABB400D40F838CB8BB4805BFFB41638D334AC161FAD01C08BD5A05705646E509A016DB80B3480011D35FA36501066401BEE0292DDE535264692BC406AF2D3A5E25106D4D6DD0502C09886226AB7CD95EDD4413780BE47B153507937
310
B9CE5BFBDDC897F7D6C9A1B75F2F807D5AB94E9A43BB2969FCF4F9ED23B65C48ACDA49F5B701BC0D8E25FCF23C00DED07E280037763D00E09219F06C00007147F9470AC1E5C942305683F03C006F02DE107A200037EE71EDC3D40B41CA197A1A0080EF0C5FEB12F8E22105D0B58FD7FD00F898F44301F881EFCDBCE34FBBDC
310
62F54875FA06244E47959771B3B4E81DF7678A7F7D7EABF0674230FE98CFFC5A3E01908D8A3EA100C07ECDD17D876C30400F811C287D028AE7A1982C3D9B0ACA8AA5FD38811C16A4ADFF6A974D0FB54A0DC8E9711100FF397778DBE313001801D86295DBB7BC40F15BC7D175C9B44010D4AD6E97BF072068815D0862B651ED
310
2100BC2180EDFFE64E8692D014AE8DEF310000E0A73C81E90D4E006A032213C05C0213C00430014C213801CC2530014C0013C014820A00FCF0C15B02EBEB7EF52767063CE89800268009E09FFBF1E4E3F100FE03566DB2C40B9E3C520000000049454E44AE426082
  0
ACDSRECORD
 90
        0
  2
AcDbDs::ID
280
    10
320
A21B9
  2
Thumbnail_Data
280
    15
 94
     2999
310
89504E470D0A1A0A0000000D4948445200000100000000B5080300000087DCD12600000300504C5445FFFFFF000000C8C8C80000000000000000000000000000000000000000000000000000330000660000990000CC0000FF0033000033330033660033990033CC0033FF0066000066330066660066990066CC0066FF0099
310
000099330099660099990099CC0099FF00CC0000CC3300CC6600CC9900CCCC00CCFF00FF0000FF3300FF6600FF9900FFCC00FFFF3300003300333300663300993300CC3300FF3333003333333333663333993333CC3333FF3366003366333366663366993366CC3366FF3399003399333399663399993399CC3399FF33CC00
310
33CC3333CC6633CC9933CCCC33CCFF33FF0033FF3333FF6633FF9933FFCC33FFFF6600006600336600666600996600CC6600FF6633006633336633666633996633CC6633FF6666006666336666666666996666CC6666FF6699006699336699666699996699CC6699FF66CC0066CC3366CC6666CC9966CCCC66CCFF66FF0066
310
FF3366FF6666FF9966FFCC66FFFF9900009900339900669900999900CC9900FF9933009933339933669933999933CC9933FF9966009966339966669966999966CC9966FF9999009999339999669999999999CC9999FF99CC0099CC3399CC6699CC9999CCCC99CCFF99FF0099FF3399FF6699FF9999FFCC99FFFFCC0000CC00
310
33CC0066CC0099CC00CCCC00FFCC3300CC3333CC3366CC3399CC33CCCC33FFCC6600CC6633CC6666CC6699CC66CCCC66FFCC9900CC9933CC9966CC9999CC99CCCC99FFCCCC00CCCC33CCCC66CCCC99CCCCCCCCCCFFCCFF00CCFF33CCFF66CCFF99CCFFCCCCFFFFFF0000FF0033FF0066FF0099FF00CCFF00FFFF3300FF3333
310
FF3366FF3399FF33CCFF33FFFF6600FF6633FF6666FF6699FF66CCFF66FFFF9900FF9933FF9966FF9999FF99CCFF99FFFFCC00FFCC33FFCC66FFCC99FFCCCCFFCCFFFFFF00FFFF33FFFF66FFFF99FFFFCCFFFFFF0000000D0D0D1A1A1A2828283535354343435050505D5D5D6B6B6B787878868686939393A1A1A1AEAEAEBB
310
BBBBC9C9C9D6D6D6E4E4E4F1F1F1FFFFFF000000000000000000000000000000000000000000000000000000000000B0E2D2350000041F4944415478DAEDDC4B76E3201005D05A51ED7FC44ADE28C324032D21F14742FC04B22581E1714EBB135C51CC5581002B96DFC18BFC7C0F5C7E6E0032702100014280AFFFD2F16316
310
E0ABF39207E83BE70940000210800004200001084000021080000420000108400002108000042000010840000210800004200001084000021080000420403B0540ACCE96CE01FE1B18B6711C00DCDB3F2CC0AD71D1360E0280A5B19B0065E5F30080F4181067E92B03B0350608A4F70CC0FC18EFE6BD030056219EEC7D8F01
310
70FE1B6E268853DBDF3E00E4D4F6B70E80C2F6F77A198414B65FF68C7B9F03003F0F2A03A05EFA67053A0470D21FC55A678E01A871FA9FD39F26768450E1F40B644000E09A59E04100AA65BFAA344EA0974D83DE03D07B11BD7FB1DD741B970FC4120848CB00EA9CD88D96B901994060090C4682960054B42CC3770662BB2B
310
3404A0A9335DD0DC642090086C0D20DE95C3CA449FD758E78F4D661A0330E7166C3DE9BDECA062990E5F9401324D9377A45B8DFA351A097253205A337929304D59922B004CC522F914381BC01E5B0BE73A7A446062A5635E5B1186ABC362006406F1D87347046A7C04BC1C00520940349AD55533E0A8335B1A589801675F06
310
510D20265001607919CE90E5CF743435B6BD15882600E697E19FE35453746B4DB03310E97E7E21C0F365E8E66437D5B06052BC2F104D003C2EC8DBFB1A5ABA01B233106801E07E26B474D7E788C0553EA0FA189017D08265EFEB816800E091715504D0400600475EDD7705FA7DBDCE65D09829589816D6BCF263C6D6C0E4F7
310
032ED910892CCC8B6ADEFD3114EC075C31113273EED9C1D9ACB351C31A7DE4ABF1C676BF05618D732414EC075CBB292A657B7DF14A8D7562355B236073BBC2E16677623E13CCEB74CE930C80AEE7C42DBE31A2DE5C460BE632ABB54378BE8D3F3952691A60D534CD4E8FC340135BE02DCFFB476C15E0D130CDBEEDF9087416
310
4E518025D0176DF8DD617DF1CD61935CE2C70ED8E1FD0166D71E47C70076414B000210A07100A9072004204077002600302301D8FB4280C337393E03C0EF0266B02E20C1182004200001084000021080006301D42E04204031C011B7247D3080FD14973101B0FE4BEE472ED81BD556FF603FEAE4F93DFCF0D5FD6D4EADD8A8
310
1601EC752B7E5FB62CCDF2DB2A7EF3920072D0BD7F2700387FCD26889CD310E09900C90C8077204185F69703CCE7F0FEF5AA6D120284281089C5897380C6016CEF440FE5952E80E7508811AF02983FC76B3D7289D3E99D41A0B1566EDC60BDB70B04A3BC04000DCE97DE07B0977AFF322822FE88D72980486A2A18B90E7639
310
15466AF51E5CCFBB04D8D8BB180680FB01042000010840000210800004200001084000021080000420000108400002108000042000010840000210800004200001084080FE003A2F45003D3F6601C62A0420C03FC0F7C0E506F03B78F90379B964E6EF912B540000000049454E44AE42608260827692EF807B27CB0A8C0100
310
04526DBF80AB3B9E78185718DDE6EB5B5DC2F525207B4495423600E5A8D404E04CE9C1D91DC8D601BD01703D5997234843C4B993E7078C2001E7437AE2CBEF07949786D8A241446F17281809D0C728E83D708886042EC9480066FA01BD0180F45DA069242CD2011D25207D17681A0933FD002C2E90D6288E3264466703E0E6
310
0651F049381D00A5331F510CD9AE70F9312A3CE708E1CDEDE13E693E006E6E0FF7C503330E52EA0CC0B203E0953ACB32A360C50262966870AD0D2ECCC541748AA3EC12E008C17D0040F01FF42104CC0340A5F2B810732C81A546D7982C55823D4B63AC5D63530270A71EEE7A89D1BEC1D1B3C2E5F5708F341F00B7EBE12E09
310
A7CB0AB3778D4DB80478BBC6AAC6028EC61CB46B6C3600CA0FD3A38DC3EC1270BA592A651F557D00AAA6C4EE6F94990E80ACA6C004C5301F00DC072ADE00A0972BCCDB35361B00CC5D63F9AEF04012C0D13536932B8C7ECF90D7FF252F489224CD02C056C675BAC6C886B00452D835363A0066B935EA1AEB6D06E32737D5EA
310
1A1B0B00D39613EAD95A5D638301104FBA793A8096815CD270C1D08981353AA0ECDC349A54B73456120D4601306971ABF38F4A74C155DFB0431A0E801309A8DF377807002E33887108AAD470C468008077708DB306AA4800D312E0738410E926BE414A638D3C416C541A83290128DD1045FDFCA8B140D411BAB3218A208D1B
310
0DE2FDD258126950007EEA5EBCB834B6D9661918FDC313EC591A6B02C0FA25A575CC9967067B96C66A03A0F9FD0120B757AB34AC866AE9531A6B7E9CDEC6AF997803C0B21FF5D7BC34D6FC70F56DF9CB4DFE8102A06D690CE38E79D525201D05A063A0E6A531EC75A2A4066037095E2CD0AA34669EE5DAC10F10AB118C9841
310
EE678D4500A870A84896274885FE4169ECE2C4BC24E3400350E54C15E68E91BCCC57F42184240075CE54E1EA1B3C66726F1504EFA004BDFF6D977144FA8005F5AB0400B58ED461AA0EFB59986886E6B2797223048D92F54E141AF1D9E341AFE8E8C7E9F1F3BFEF0FD8DB51AA1EA8741B00A82000A0CF128B1EA5FB64009448
310
6900C67FE86A25009CF3C45F05C0B6EEC51E7EBE13003DFDDBB53A02430270646096F7016010585EAA031C2BF052006C3FE08500EC9EA0B9BC0F00A87C7EDCF8004043FEC704A0CDEA1F1B8066230300E663DC6603803D1F3D1900D683DECC03EEEC07E09AEFAD5DA56EFA4B11FC9C98FDC3F617FABFACDFC9B9DB12003856
310
82FB41E1780E6C0400B400F0A9FE0F43B0CD4BBDC34E031B90B6126026108259723B569C57104D8B4234270A310002E16808005A9B255D1EF436F25048FDA5E24A3FD0305012B05F21F8536D01D0B25FE114E1A6A310003C9A0650B74F20000C6F14B8CE12B3451C42197564F3A9009875E875E9056BF7910080ED07106F31
310
2C007CAEB051C617183F1680E8A32C027FE7B100BC3D1AFC00F800F8007827000F1F49003CF97A09C0BBC607C007C00F80BF2F1E1B002F1FFF01CB56E95C1413B5DA0000000049454E44AE426082
  0
ACDSRECORD
 90
        0
  2
AcDbDs::ID
280
    10
320
22
  2
Thumbnail_Data
280
    15
 94
     3312
310
89504E470D0A1A0A0000000D49484452000001000000007B0803000000AC3EAEE200000300504C5445212830000000C8C8C80000000000000000000000000000000000000000000000000000330000660000990000CC0000FF0033000033330033660033990033CC0033FF0066000066330066660066990066CC0066FF0099
310
000099330099660099990099CC0099FF00CC0000CC3300CC6600CC9900CCCC00CCFF00FF0000FF3300FF6600FF9900FFCC00FFFF3300003300333300663300993300CC3300FF3333003333333333663333993333CC3333FF3366003366333366663366993366CC3366FF3399003399333399663399993399CC3399FF33CC00
310
33CC3333CC6633CC9933CCCC33CCFF33FF0033FF3333FF6633FF9933FFCC33FFFF6600006600336600666600996600CC6600FF6633006633336633666633996633CC6633FF6666006666336666666666996666CC6666FF6699006699336699666699996699CC6699FF66CC0066CC3366CC6666CC9966CCCC66CCFF66FF0066
310
FF3366FF6666FF9966FFCC66FFFF9900009900339900669900999900CC9900FF9933009933339933669933999933CC9933FF9966009966339966669966999966CC9966FF9999009999339999669999999999CC9999FF99CC0099CC3399CC6699CC9999CCCC99CCFF99FF0099FF3399FF6699FF9999FFCC99FFFFCC0000CC00
310
33CC0066CC0099CC00CCCC00FFCC3300CC3333CC3366CC3399CC33CCCC33FFCC6600CC6633CC6666CC6699CC66CCCC66FFCC9900CC9933CC9966CC9999CC99CCCC99FFCCCC00CCCC33CCCC66CCCC99CCCCCCCCCCFFCCFF00CCFF33CCFF66CCFF99CCFFCCCCFFFFFF0000FF0033FF0066FF0099FF00CCFF00FFFF3300FF3333
310
FF3366FF3399FF33CCFF33FFFF6600FF6633FF6666FF6699FF66CCFF66FFFF9900FF9933FF9966FF9999FF99CCFF99FFFFCC00FFCC33FFCC66FFCC99FFCCCCFFCCFFFFFF00FFFF33FFFF66FFFF99FFFFCCFFFFFF0000000D0D0D1A1A1A2828283535354343435050505D5D5D6B6B6B787878868686939393A1A1A1AEAEAEBB
310
BBBBC9C9C9D6D6D6E4E4E4F1F1F1FFFFFF000000000000000000000000000000000000000000000000000000000000B21171F6000002184944415478DAED9B6D9682300C45BBC62C382BC9225CC22802F613F5C82821F79EF95168EBE1BDA64DA94E4A0000000000000000000000000000007034CCA2EBB7F26A2292FC426E
310
30036E42FB1130E45CFA17C5310D98C458DC08B0350642E6045BF507CD7D69A03F46069887DF8669F1A853DFF61D7E4BAF3B7022036C0D7F733A7377F90C4BBE0D90EB9F48B7916CD45C875FCA1CE8D40099E829BDDFEF7A70BD6753A76C16F83420175709DDA8597527C9C3C0A101A53249AFB921B95EAF06E8CC45572EFD
310
F245F3F28459D9F35ACE3ED8C55E487B06E83E657560C0FDB19AD54DBAB3A1BCD1EB54A854472B6067754FC3AA714D39C8FAC61BF1011D786AC05307D4C51A584C812CD34B1D098DEEB6939449C08701B747963CB155EADA193F97069DAC0E780F0EF476B9320AF32636AAAAF94CD4D37157C7814EE43F5F0296B6E66B0A4C
310
CF3B9699DECD908F317762C04B7BC061B9696EDADD09BA31E0E33DA0F577820E5E86862F40D5856876A14D3BF398062B99F5C257D564BA0A33763C61FBD981C820BDC9BD6A6E900FACCE350F937C1F89890C4EBE441E5585014DA70087A2BAB9DB8D62C09CED310003FC1B90F6352000D3066F314023EA5F8F83DDEC769902
310
FFB07406FF21240660000624807384B2858EE6E5B77DF611CEC7FF53F927302061C08F399001DFFB5EF31001D4884EC10C48ED239CF65F79361C180C0CBB5D0000000000000000000000000000000080EFF10758C528FF1140242A0000000049454E44AE4260822D564FF12763645740AA1AC878049816909E860DD427232C
310
2AD033195674C869724184886F233D0020E045240878E39AC584467999ACEBE027000000000000000000000000000000000000008074FE00365298D90B15F8230000000049454E44AE42608288041E07FD3B24970000000049454E44AE42608268C9721C63864E0095D04027878112004349C83B553E708253105DFE8D4961
310
A8108015016B43BF92D0E7936BEC25829E2100126CF96C391880CE0B04B58A2C5617350BE8134490867DA093022CA3380908B4FF291F3062C19608ADE9226BF885090DFF3EAD9C6C9920B808B80ABF3555C211FA86663C2CF4F061FCD65609ECC2A73660A4008D99E04BF0F7BEA79824DD1F8E670C2F9F1618E739D91E1CFA
310
04248D9390B479B543C45BFF36DF843DFB4FBA5518A6482CD2E9AC992CB4042AAF687DD3D418EF3A2F5EC1774515F6A67EB90AFD727254B6C91D1324F691A10BBE861781CCF6890ACAF3619609467509EF99906C941CA1EC32609A184198270002BB84F7444021A08B51F70328E606470C1C2F920D008DC65150AAC1E52EE1
310
3D11A809185879F574258A3A344151F16B074AC10080A15DC27B22E026803D2FC3193A0990951F4BA8855CF27D4368976CD67DC0087F7901AA0D32C4C2BB0CC8FE181B01D1F805017F9180105087872346B413995B12A1902E61E904F766F17F3F785CFC26C18C024C984615FE0D49F06A97B074829FE307C9013EC5E3FF75
310
CF1EA6D8192497CF7CC775090B275878A0E83EE7E3F439CDB64FC0C57A004475090B27D821E0AF0EFC47802117BA411009EB123EAAC13E01A9643E9F41324802F8A56320AC4BF8A8068716602300E734C11549C43E1BD49E42B110700C811E012415B411301D28E2BA840F49CCEC047BC9B053169F9F1D0EEC123E24314718
310
6C11804E6C11B172BD4B583841472224D502F45A372F86CE2629182EA15C2A0235BF8030990A2FCD6DF01E21E8AC96510888C49FB320C0570C71F7E7C5CF9A60405F420935013145309D1C5D2C8767C62FED1384EED2593957EC3DD943E73843C0327E327B524F0537D6CAD01A2BCAFEA145805D129B74E3A529867489A9EB
310
66350278C3FF62AB48D609308AA218DE5DE0AE0697A78A119AB2781A4D983CD2EB6DC36FA7045D1343CCFE9FEB75D720CE4B822EF9FF35F8E7533F7108FB0C24B68E8E4C0FE3C3F823BA648B13E88C82D68F07977A04E3377748D003F09A2D0456BA84C1D226C642415A8CFE00B0544198C07AEB624F9314C4E15FD2CE83BA
310
84070D127D2D23E8ECE39A139849FD6424C01B2D576AC7540FA00BC58027BFA47064DBE8AC76098F82C085F8353D4016C5DA5C2102067609C34CAF70307E2988F003005A7D1CD6253CD12B1CB7754AB56E1095A2186AA90820AE4BD8DF2B1C17FDC5565AD5E2414200D70B20B04BD8BD5E20742F31B250ACEE95AF09383584
310
B82E61AF0F88DD4ECE9807C89718365474B64AE0DDC33F2A138C6A95C1074EBF660AC213C2B99678500DCD77097B7CC075C58FE2FF01D8626AC3F91FCF8BB60FA1A1FBF9CAE28F873C6E01AA6C982E593FFF187E65B7B08380AB364C90B7E1060AD77E0965F7D09229BE83808BBF02D9408DF609BF8780576CF472A50FC094
310
7A04BC0E7F9DD3C9D6207B1E304E84F0BDF8739DE66A874A6AD0DE581BE0C74E7FECC6E207C876DBD7FF027FA795AE4DC02FE0CFEBDD122D025E3AFCBB785636D6EEB57D5D97003D8FBF6C272808B81EFFFC9F69E299C1DFB0809BF04FAF9D9F9C02500F69045C3FFC498F5075550D542402E4B5D1E4140074FA03080177B8
310
3F6CC8E27CF314872A3EBD8A22CB1510B7787FB2B85013C48FDAA84180D1BA4DAB288A1338D781DD12C890100062A928DB5C592120079E7F8500B89500D926C79AE300B4BEC190D5A2B513D809B82DFBC1B2BE90AC3424EB632B0240BDCCCE4CEAA76FACBC117063F617B281C2FC6AC96A179564D146DF560D84E0879F2320
310
62B52854F3E3BF6401C1F3A33F48C0FA6A51FA117E02D2EBF177531F3984BC04A4A70958DB4AB84E959C048C2F3F638F83D3F1530FEADAAE93FB11F6823DFCEF0FD16D0121042CEC2A4B908A34F938A575EE4C78C8674AB57FD0DC7CC2637A8021DE2B4FF65A64D0ED04D74D80EE2ECFAE2403A2274A36CE99E2FD083FF388
310
98FD04ACBB41AC96CDA1AA005425E15CBCEBE946331610A4072804D4AB254108054B21405F35F60001DAEEF22A01A81210B76AF24102AA3E41B188B2D133EB3BD9B662D04D404C14ACAE2F462FAE5111005C118AB27F9872828FEB01E6DD212CBAF9331610900C476DB0AD12A05D071ACA86E967880604941EFD7A613560E8
310
B362B0410000C94DD8F660649718E4BF94617C33FEBCD03ADFB180B3A15710C0774D24BB43023053B90D3FC07CCB84E604E93E2844B13DA0B37D82D8CE41077CBCCB09CCE3CF309F090E0B9927F167FF464A3F170522574DE68732C140FCABBB094D5583EFC1BFB86AF2B15A2044169C48FDB276CD551F0129BD4C1536EA3F
310
4D5EDC1610258ACEE3AF243F299570955088A1F97CE3D205FC1EC3CF2FB957B44E4D372ABFB3DF084964D1CCCD9A60C020302A22639F39238AA697E08FB9E4D813A228B7682A812EE29F098B7F0EE1B14CB0D504E5C63FAD886C4EE06102C485946E5544B631F00E02A2F03B3B09DF44C09081FF00D1134B7DDF6982E60000
310
000049454E44AE426082
  0
ENDSEC
  0
EOF
